Nirvana - Something In The Way Chords & Tabs

 

Something In The Way Chords & Tabs

Nirvana Chords & Tabs

Version: 9 Type: Tab 0 ratings
1 star 2 stars 3 stars 4 stars 5 stars
comments

Something In The Way Tab

   
Something In the Way
Nirvana
UNplugged in New York


Tune Bass E down to Db(C#) 
(Bass E should match A when E is played on the 8th Fret)


Intro & Verse:

 e|------------------------------------|
 B|------------------------------------|
 G|------------------------------------|  x10
 D|------------------------------------| 
 A|-----3-----3------------------------| 
Db|--4-----4-----4--0--7--0--7--0---4--|

Chorus:  
[ Tab from: http://www.guitartabs.cc/tabs/n/nirvana/something_in_the_way_tab_ver_9.html ]
    F		      C#sus2
e|--1--1--1--1--1--1---4--4--4--4--4--4--|
B|--1--1--1--1--1--1---4--4--4--4--4--4--|
G|--2--2--2--2--2--2---5--5--5--5--5--5--| x8
D|--3--3--3--3--3--3---6--6--6--6--6--6--|
A|--3--3--3--3--3--3---6--6--6--6--6--6--|
E|--x--x--x--x--x--x---4--4--4--4--4--4--|
   Something In The....Way
   Oohh................Oh


LYRICS:

VERSE:

Underneath the bridge 
The tarp has sprung a leak
And the animals are trapped
They've all become my pets
And I feed them off of grass
And the drippings from the ceiling
It's okay to eat fish, cause they don't have any feelings

CHORUS:

Something in the way
Ooh, ooh
Something in the way, yeah
Ooh, ooh 

They Should Be 100% Correct, If Not, There You Must A Deaf Idiot.

Bye Bye! Leon.
Comments