Nirvana - Something In The Way Chords & Tabs

 

Something In The Way Chords & Tabs

Nirvana Chords & Tabs

Version: 8 Type: Tab 0 ratings
1 star 2 stars 3 stars 4 stars 5 stars
comments

Something In The Way Tab

Something In the Way
Nirvana
UNplugged in New York (damn good CD, buy it)
E--------------------------------------
B--------------------------------------
G-------------------------------------- This is the beggining and 
D-------------------------------------- verse of the song.You
A---6---6------2---2------6---6------2---2 dont have to play it in 
E-4---4---4--0---0---0--4---4---4--0---0-- dropped d.
[ Tab from: http://www.guitartabs.cc/tabs/n/nirvana/something_in_the_way_tab_ver_8.html ]
E-4-4-4-4--0-0-0-0
B-4-4-4-4--0-0-0-0 These are the chorus chords. He plays them while
G-5-5-5-5--1-1-1-1 he sings " something in the way, ooh, ooh, 
D-6-6-6-6--2-2-2-2 something in the way, yeah, ooh ,ooh
A-6-6-6-6--2-2-2-2
E-4-4-4-4--0-0-0-0

LYRICS:

VERSE
Underneath the bridge 
The tarp has sprung a leak
And the animals are trapped
They've all become my pets
And I feed them off of grass
And the drippings from the ceiling
It's okay to eat fish, cause' they don't have any feelings

CHORUS:
Something in the way
Ooh, ooh
Something in the way, yeah
Ooh, ooh 

Im not sure if this is entirely right, but it sounds fine to me, and if it doesn't sound good
to you I'm either hard of hearing or your a fucking mornon. Bye Bye, Cohan
Comments