Nirvana - Smells Like Teen Spirit Chords & Tabs

 

Smells Like Teen Spirit Chords & Tabs

Nirvana Chords & Tabs

Version: 8 Type: Tab 0 ratings
1 star 2 stars 3 stars 4 stars 5 stars
comments

Smells Like Teen Spirit Tab

|\  |  |  |\  \    /   /\   |\  |   /\   |\  |    /\
| \ |  |  |/   \  /   /--\  | \ |  /--\  | \ |   /--\
|  \|  |  |\    \/   /    \ |  \| /    \ |  \|  /    \


smells like teen spirit  by :eric 
this is how I play it 
enjoy!!!

e|---------------------------------------------------------------|
B|---------------------------------------------------------------|
G|---------------------------------------------------------------|
D|----------------1-1-0---------------4-4------------------------|
A|---1--1-1--x-x--3-3-0---4--4-4-x-x--6-6------------------------|
E|---3--3-3--x-x----------6--6-6-x-x-----------------------------|

e|---------------------------------------------------------------|
B|---------------------------------------------------------------|
G|---------------------------------------------------------------|
D|----------------1-1-0---------------4-4------------------------|
A|---1--1-1--x-x--3-3-0---4--4-4-x-x--6-6------------------------|
E|---3--3-3--x-x----------6--6-6-x-x-----------------------------|
[ Tab from: http://www.guitartabs.cc/tabs/n/nirvana/smells_like_teen_spirit_tab_ver_8.html ]
e|---------------------------------------------------------------|
B|---------------------------------------------------------------|
G|---------------------------------------------------------------|
D|----------------1-1-0---------------4-4------------------------|
A|---1--1-1--x-x--3-3-0---4--4-4-x-x--6-6------------------------|
E|---3--3-3--x-x----------6--6-6-x-x-----------------------------|

e|---------------------------------------------------------------|
B|---------------------------------------------------------------|
G|---------------------------------------------------------------|
D|----------------1-1-0---------------4-4------------------------|
A|---1--1-1--x-x--3-3-0---4--4-4-x-x--6-6------------------------|
E|---3--3-3--x-x----------6--6-6-x-x-----------------------------|

e|---------------------------------------------------------------|
B|---------------------------------------------------------------|
G|---------------------------------------------------------------|
D|----------------1-1-0---------------4-4------------------------|
A|---1--1-1--x-x--3-3-0---4--4-4-x-x--6-6------------------------|
E|---3--3-3--x-x----------6--6-6-x-x-----------------------------|

e|---------------------------------------------------------------|
B|---------------------------------------------------------------|
G|---------------------------------------------------------------|
D|----------------1-1-0---------------4-4------------------------|
A|---1--1-1--x-x--3-3-0---4--4-4-x-x--6-6------------------------|
E|---3--3-3--x-x----------6--6-6-x-x-----------------------------|
Comments