Nirvana - Smells Like Teen Spirit Chords & Tabs

 

Smells Like Teen Spirit Chords & Tabs

Nirvana Chords & Tabs

Version: 3 Type: Tab 2 ratings
1 star 2 stars 3 stars 4 stars 5 stars
comments

Smells Like Teen Spirit Tab

   
Well, hey everyone. I couldn't be bothered putting all the bars in so, do it yourself if you really want em. :)This songs called Smells Like Teen Spirit, by Nirvana from album: Nervmind, guitar by Kurt Cobain and everyone does it wrong from what I've seen. Timing's obviously wrong so listen to the song...

   {{KeY}}

  x     left hand mute.
  \     slide.
  fb    full bend.
  ^^r   hold down then release bend.



         Intro/Chorus         1x without distortion 2x with distortion.
E|--------------------------------------------------------------------|
B|-------------0---x--3--3--0--0------------x-x--x-x--6--6--0---------|
G|----3--3--x--0---x--3--3--0--0-----6--6---x-x--x-x--6--6--0---------|
D|-3--3--3--x--0---x--3--3--0--0--6--6--6---x-x--x-x--6--6--0---------|
A|-3--3--3--x------x--1--1--------6--6--6---x-x--x-x--4--4------------|
E|-1--1--1--x---------------------4--4--4---x-x--x-x------------------|

E|--------------------------------------------------------------------|
B|----------x-x--x-x--3--3--0--0------------------------6--6--0-------|
G|----3--3--x-x--x-x--3--3--0--0-----6--6---x--x--x--x--6--6--0-------|
D|-3--3--3--x-x--x-x--3--3--0--0--6--6--6---x--x--x--x--6--6--0-------|
A|-3--3--3--x-x--x-x--1--1--------6--6--6---x--x--x--x--4--4----------|
E|-1--1--1--x-x--x-x--------------4--4--4---x--x--x--x----------------|

        
        Verse 1                with chorus pedal. x3

E|------1-----------------------------------1-------------------------|
B|--1-----------------------------------1-----------------------------|
G|--------------------------------------------------------------------|
D|--------------------------------------------------------------------|
A|--------------------------------------------------------------------|
E|--------------------------------------------------------------------|
  
 


       Pre-chorus               with chorus pedal and distortion.

E|---------------------------------------------------------------------|
B|---------------------------------------------------------------------|
G|---------------------------------------------------------------------|
D|---------------------------------1-----------------------------------|
A|-3-------------------------------3-------------------------------6---|
E|-1---------------------------------------------------------------4---|
   
      Hello, hello, hello, how low?   Hello, hello, hello, how low?

E|---------------------------------------------------------------------|
B|---------------------------------------------------------------------|
G|---------------------------------------------------------------------|
D|------------------------------6--------------------------------------|
A|------------------------------4--------------------------------------|
E|---------------------------------------------------------------------|

   Hello, hello, hello, how low?   Hello, hello, hello....

   Chorus                  with distortion.  
Note: This is a little confusing, but you should be able to figure it out.

E|--------------------------------------------------------------------|
B|-------------0---x--3--3--0--0------------------------6--6--0-------|
G|----3--3--x--0---x--3--3--0--0-----6--6---x--x--x--x--6--6--0-------|
D|-3--3--3--x--0---x--3--3--0--0--6--6--6---x--x--x--x--6--6--0-------|
A|-3--3--3--x------x--1--1--------6--6--6---x--x--x--x--4--4----------|
E|-1--1--1--x---------------------4--4--4---x--x--x--x----------------|



E|--------------------------------------------------------------------|
B|----------x-x--x-x--3--3--0--0------------------------6--6--0-------|
G|----3--3--x-x--x-x--3--3--0--0-----6--6---x--x--x--x--6--6--0-------|
D|-3--3--3--x-x--x-x--3--3--0--0--6--6--6---x--x--x--x--6--6--0-------|
A|-3--3--3--x-x--x-x--1--1--------6--6--6---x--x--x--x--4--4----------|
E|-1--1--1--x-x--x-x--------------4--4--4---x--x--x--x----------------|
 


   Break                     with distortion. x2

E|--------------------------------------------------------------------|
B|--------------------------------------------------------------------|
G|------------------3fb-----------------------------------------------|
D|--3--3---3--4--4--------3--3---3--8--8--8--6--6---------------------|
A|--3--3---3--4--4--------3--3---3--8--8--8--6--6---------------------|
E|--1--1---1--2--2--------1--1---1--6--6--6--4--4---------------------|

        


       Verse 1                with chorus pedal. x3

E|------1---------------------------------1---------------------------|
B|--1---------------------------------1-------------------------------|
G|--------------------------------------------------------------------|
D|--------------------------------------------------------------------|
A|--------------------------------------------------------------------|
E|--------------------------------------------------------------------|
 

      
         Pre-chorus               with chorus pedal and distortion.

E|---------------------------------------------------------------------|
B|---------------------------------------------------------------------|
G|---------------------------------------------------------------------|
D|---------------------------------1-----------------------------------|
A|-3-------------------------------3-------------------------------6---|
E|-1---------------------------------------------------------------4---|
   
      

E|---------------------------------------------------------------------|
B|---------------------------------------------------------------------|
G|---------------------------------------------------------------------|
D|------------------------------6--------------------------------------|
A|------------------------------4--------------------------------------|
E|---------------------------------------------------------------------|
[ Tab from: http://www.guitartabs.cc/tabs/n/nirvana/smells_like_teen_spirit_tab_ver_3.html ]
   Hello, hello, hello, how low?   Hello, hello, hello....

   Chorus                  with distortion.  

E|--------------------------------------------------------------------|
B|-------------0---x--3--3--0--0------------------------6--6--0-------|
G|----3--3--x--0---x--3--3--0--0-----6--6---x--x--x--x--6--6--0-------|
D|-3--3--3--x--0---x--3--3--0--0--6--6--6---x--x--x--x--6--6--0-------|
A|-3--3--3--x------x--1--1--------6--6--6---x--x--x--x--4--4----------|
E|-1--1--1--x---------------------4--4--4---x--x--x--x----------------|



E|--------------------------------------------------------------------|
B|----------x-x--x-x--3--3--0--0------------------------6--6--0-------|
G|----3--3--x-x--x-x--3--3--0--0-----6--6---x--x--x--x--6--6--0-------|
D|-3--3--3--x-x--x-x--3--3--0--0--6--6--6---x--x--x--x--6--6--0-------|
A|-3--3--3--x-x--x-x--1--1--------6--6--6---x--x--x--x--4--4----------|
E|-1--1--1--x-x--x-x--------------4--4--4---x--x--x--x----------------|
 


   Break                     with distortion. x2

E|--------------------------------------------------------------------|
B|--------------------------------------------------------------------|
G|------------------3fb-----------------------------------------------|
D|--3--3---3--4--4--------3--3---3--8--8--8--6--6---------------------|
A|--3--3---3--4--4--------3--3---3--8--8--8--6--6---------------------|
E|--1--1---1--2--2--------1--1---1--6--6--6--4--4---------------------|

                    Yay.
          
                Solo                  distortion and a flanger maybe?

E|--------------------------------------------------------------------|
B|--------------------------------------------------------------------|
G|-----8---10--\8---8-8fb^^r--6--5--6-5-------------------------------|
D|--10------------6----------------------8--6--8-8fb^^r--6-5----------|
A|--------------------------------------------------------------------|
E|--------------------------------------------------------------------|

E|--------------------------------------------------------------------|
B|--------------------------------------------------------------------|
G|-----8---10--\8---8-8fb^^r--6--5--6-5-------------------------------|
D|--10------------6----------------------8--6--8-8fb^^r--6--5---------|
A|--------------------------------------------------------------------|
E|--------------------------------------------------------------------|

E|--------------------------------------------------------------------|
B|--------------------------------------------------------------------|
G|--------------------------------------------------------------------|
D|--6--5---6--5---6--5-5-----6--5---6--5---6--5---6--5-5--------------|
A|-----------------------8-------------------------------8------------|
E|--------------------------------------------------------------------|

E|--------------------------------------------------------------------|
B|--------------------------------------------------------------------|
G|--------------------------------------------------------------------|
D|--6--5---6--5---6--5---6--5-5---------------------------------------|
A|------------------------------8~~~~~~~~~~~~~~~~~~~~~~~~~~~~~~~~~~~~~|
E|--------------------------------------------------------------------|
                       
             Verse 3

E|--------------------------------------------------------------------|
B|--------------------------------------------------------------------|
G|--------------------------------------------------------------------|
D|--------------------------------------------------------------------|
A|~~~~~~~~~~~~~~~~~~~~~~~~~~~~~~~~~~~~~~~~~~~~~~~~~~~~~~~~~~~~~~~~~~~~|
E|--------------------------------------------------------------------|
 

     
         Pre-chorus               with chorus pedal and distortion.

E|---------------------------------------------------------------------|
B|---------------------------------------------------------------------|
G|---------------------------------------------------------------------|
D|----------------------------------1----------------------------------|
A|-3--------------------------------3-------------------------------6--|
E|-1----------------------------------------------------------------4--|
   
  

E|---------------------------------------------------------------------|
B|---------------------------------------------------------------------|
G|---------------------------------------------------------------------|
D|------------------------------6--------------------------------------|
A|------------------------------4--------------------------------------|
E|---------------------------------------------------------------------|

   

   Chorus                  with distortion.  

E|--------------------------------------------------------------------|
B|-------------0---x--3--3--0--0------------------------6--6--0-------|
G|----3--3--x--0---x--3--3--0--0-----6--6---x--x--x--x--6--6--0-------|
D|-3--3--3--x--0---x--3--3--0--0--6--6--6---x--x--x--x--6--6--0-------|
A|-3--3--3--x------x--1--1--------6--6--6---x--x--x--x--4--4----------|
E|-1--1--1--x---------------------4--4--4---x--x--x--x----------------|


E|--------------------------------------------------------------------|
B|----------x-x--x-x--3--3--0--0------------------------6--6--0-------|
G|----3--3--x-x--x-x--3--3--0--0-----6--6---x--x--x--x--6--6--0-------|
D|-3--3--3--x-x--x-x--3--3--0--0--6--6--6---x--x--x--x--6--6--0-------|
A|-3--3--3--x-x--x-x--1--1--------6--6--6---x--x--x--x--4--4----------|
E|-1--1--1--x-x--x-x--------------4--4--4---x--x--x--x----------------|
 
                      
                 

             
There you go. Not my favourite Nirvana song, but still pretty sick! ;)
Drop me a line for corrections, hate mail, or anythin' else you can think of.
                        --Sam R. ((manical_20@hotmail.com))
Comments