Nirvana - Smells Like Teen Spirit Chords & Tabs

 

Smells Like Teen Spirit Chords & Tabs

Nirvana Chords & Tabs

Version: 14 Type: Tab 0 ratings
1 star 2 stars 3 stars 4 stars 5 stars
comments

Smells Like Teen Spirit Tab

Tabbed by: Omar A. Garay Araujo

Any sugestions e-mail me at akua_2@yahoo.com, I hope you like it:

intro:

(first 2 times without distortion next 4 times with)

(riff1)
|-----------------------------------------------|
|-----------------------------------------------|
|---------------3-3-0----------------6-6-0------|
|-3-3-3-x-x-x-x-3-3-0--6-6-6-x-x-x-x-6-6-0------|
|-3-3-3-x-x-x-x-1-1-0--6-6-6-x-x-x-x-4-4-0------|
|-1-1-1-x-x-x-x-----0--4-4-4-x-x-x-x-----0------|  Then:

Bass:

(trought all the song)

|--------------------------------------|
|--------------------------------------|
|---------1-1-1-1----------4-4-4-4-----|
|-1-1-1-1----------4-4-4-4-------------|

Guitar: (verses)

(riff 2)
|-------1------------------------------|
|-----1--------------------------------|
|--------------------------------------|
|--------------------------------------|
|--------------------------------------|
|--------------------------------------|

Load up on guns.........................

Guitar: (pre-chorus)

|--------------------------------------|
|---6-----6------6------6------6-------|
|-5---5-5----5-5----5-5----5-5---------|
|--------------------------------------|
|--------------------------------------|
|--------------------------------------|

Hello, hello heeellooo..................


Guitar (chorus same as intro):

|-----------------------------------------------|
|-----------------------------------------------|
|---------------3-3-0----------------6-6-0------|
|-3-3-3-x-x-x-x-3-3-0--6-6-6-x-x-x-x-6-6-0------|
|-3-3-3-x-x-x-x-1-1-0--6-6-6-x-x-x-x-4-4-0------|
|-1-1-1-x-x-x-x-----0--4-4-4-x-x-x-x-----0------|

a mulata, here we are now entretain us...........

Then:

Guitar: (after chorus an just before solo):

Repeat 2 time

(riff 3)
|------------------------------------------------|
|------------------------------------------------|
|---------------3br~~------------3-3-------------|
|-3-3-3-x-x-4-4--------3-3-3-x-x-3-3--6-6-6------|
|-3-3-3-x-x-4-4--------3-3-3-x-x-1-1--6-6-6------|
|-1-1-1-x-x-2-2--------1-1-1-x-x------4-4-4------|
 |-end on this-| 

Solo:
[ Tab from: http://www.guitartabs.cc/tabs/n/nirvana/smells_like_teen_spirit_tab_ver_14.html ]
|----------------------------------------------|
|----------------------------------------------|
|-----8-/10------8*br6-5-6-5-------------------|
|-10---------6----------------8-6-8*br6-5------|
|----------------------------------------------|
|----------------------------------------------|

|----------------------------------------------|
|----------------------------------------------|
|-----8-/10------8*br6-5-6-5-------------------| * first hit the note and let ring
|-10---------6----------------8-6-8*br6-5------|   for a moment an then bend and release 
|----------------------------------------------|   it fast.
|----------------------------------------------|

|--------------------------------------|
|--------------------------------------|
|--------------------------------------|
|-6-5-6-5-6-5-6\5---6-5-6-5-6-5-6\5----|
|-----------------8-----------------8--|
|--------------------------------------|

|---------------------------------------------|
|---------------------------------------------|
|---------------------------------------------|
|-6-5-6-5-6-5-6\5---6-5-6-5-6-5-6\5-----------|
|-----------------8-----------------8~~~~~~~--|
|---------------------------------------------|


Final verse without the riff 2.

LYRICS:

Load up on guns, bring your friends      
It's fun to lose, and to pretend          
She's over bored, and self assured
I know I know, A dirty word

hello, hello, hello, hello, how long, hello, hello, hello, hello,
hello, hello, hello, hello, how long, hello, hello, hello, hello

With the lights out it's less dangerous
Here we are now, entertain us
I feel stupid and contagious
Here we are now, entertain us.
A mulatto, an albino, a mosquito, my libido, Yeah!

I'm worse at what I do best,        
and for this gift I feel blessed.   
I met a group that's always been    
And always will until the end.      

hello, hello, hello, hello, how long, hello, hello, hello, hello,
hello, hello, hello, hello, how long, hello, hello, hello, hello

With the lights out it's less dangerous
Here we are now, entertain us
I feel stupid and contagious
Here we are now, entertain us.
A mulatto, an albino, a mosquito, my libido, Yeah!

And I forget, just why i taste    
Oh yes I guess it makes me smile    
I found it hard. . .Its hard to find 
Oh well, whatever, nevermind
Comments