Nirvana - Smells Like Teen Spirit Chords & Tabs

 

Smells Like Teen Spirit Chords & Tabs

Nirvana Chords & Tabs

Version: 1 Type: Tab 92 ratings
1 star 2 stars 3 stars 4 stars 5 stars
comments

Smells Like Teen Spirit Tab

Smells Like Teen Spirit
NIRVANA

INTRO x2 Clean
E|---------------------------------------------------|
b|---------------------------------------------------|  
g|---------x-x-x-x-3--3-----------x-x-x-x--6--6-6----|
d|-3--3-3--x-x-x-x-3--3-0--6--6-6-x-x-x-x--6--6-6-0--|
a|-3--3-3--x-x-x-x-1--1-0--6--6-6-x-x-x-x--4--4-4-0--|
e|-1--1-1--x-x-x-x------0--4--4-4-x-x-x-x---------0--|        

Then Hit Distorstion x4
E|---------------------------------------------------|
b|---------------------------------------------------|  
g|---------x-x-x-x-3--3-----------x-x-x-x--6--6-6----|
d|-3--3-3--x-x-x-x-3--3-0--6--6-6-x-x-x-x--6--6-6-0--|
a|-3--3-3--x-x-x-x-1--1-0--6--6-6-x-x-x-x--4--4-4-0--|
e|-1--1-1--x-x-x-x------0--4--4-4-x-x-x-x---------0--|        

VERSE
e|--------------------------------------------------------------| 
b|----6----------6----------6----------6----------6----------6--|
g|-5----------5----------5----------5----------5----------5-----|
d|--------------------------------------------------------------|
a|--------------------------------------------------------------|
e|--------------------------------------------------------------|
[ Tab from: http://www.guitartabs.cc/tabs/n/nirvana/smells_like_teen_spirit_tab.html ]
PRE-CHORUS
e|---------------------------------------------------------------| 
b|---6---6---6---6---6---6---6---6---6---6---6---6---6---6---6---|
g|-5---5---5---5---5---5---5---5---5---5---5---5---5---5---5---5-|
d|---------------------------------------------------------------|
a|---------------------------------------------------------------|
e|---------------------------------------------------------------|

CHORUS
E|---------------------------------------------------|
b|---------------------------------------------------|  
g|---------x-x-x-x-3--3-----------x-x-x-x--6--6-6----|
d|-3--3-3--x-x-x-x-3--3-0--6--6-6-x-x-x-x--6--6-6-0--|
a|-3--3-3--x-x-x-x-1--1-0--6--6-6-x-x-x-x--4--4-4-0--|
e|-1--1-1--x-x-x-x------0--4--4-4-x-x-x-x---------0--|   

After that x2
E|------------------------|
b|------------------------|  
g|---------3^-------------|
d|-3-x-4-4----3-x-/-8-7-7-|
a|-3-x-4-4----3-x-/-8-7-7-|
e|-1-x-2-2----1-x-/-6-5-5-|

SOLO
e|-----------------------------------------------------------------------------|
b|-4--6\-------4--(4)--2-1-2-1-------------------------------------------------|
g|5---------1-------------------3-1---3--(3)--1-0--------3/-1-0-1-0-1-0-1-0----|
d|---------------------------------------------------------------------------3-|
a|-----------------------------------------------------------------------------|
e|-----------------------------------------------------------------------------|

This is exactly(well about 98% accurate)the way Kurt Cobain Plays this song.
All the other tabs I have seen for this have parts of the song right but not
all of it. I have also tabbed another very accurate Heart-Shaped Box it is
on this website too. Enjoy.
Comments