Nirvana - Smells Like Teen Spirit Correct Chords & Tabs

 

Smells Like Teen Spirit Correct Chords & Tabs

Nirvana Chords & Tabs

Version: 1 Type: Tab 37 ratings
1 star 2 stars 3 stars 4 stars 5 stars
comments

Smells Like Teen Spirit Correct Tab

Title: Smells Like Teen Spirit
Artist: Nirvana

This tab is 100% correct, trust me.

INTRO
 Really Fast

Repeat 6 times
----------------------------------------------------------------------
-------------------3---3-3---x-x---------------------6---6-6---x-x----
-3---3-3---x-x-x-x-3---3-3---x-x--6---6-6---x-x-x-x--6---6-6---x-x----
-3---3-3---x-x-x-x-3---3-3---x-x--6---6-6---x-x-x-x--6---6-6---x-x----
-3---3-3---x-x-x-x-1---1-1---x-x--6---6-6---x-x-x-x--4---4-4---x-x----
-1---1-1---x-x-x-x----------------4---4-4---x-x-x-x-------------------

Repeat twice
-------1------------------------------------------------1-------------
-1------------------------------------------------1-------------------
----------------------------------------------------------------------
----------------------------------------------------------------------
----------------------------------------------------------------------
----------------------------------------------------------------------

Repeat twice
-----1--------1--------1--------1--------1--------1--------1--------1-
-1--------1--------1--------1--------1--------1--------1--------1-----
----------------------------------------------------------------------
----------------------------------------------------------------------
----------------------------------------------------------------------
----------------------------------------------------------------------

Now Repeat the INTRO 6 times
[ Tab from: http://www.guitartabs.cc/tabs/n/nirvana/smells_like_teen_spirit_correct_tab.html ]
Bridge
----------------------------------------------------------------------
----------------------------------------------------------------------
-----------3b--------------------------------3b-----------------------
3--2-3-4-4------3--2-3/8--8/6-----3--2-3-4-4------3--2--3/8--8--7---6-
3--2-3-4-4------3--2-3/8--8/6--3--3--2-3-4-4------3--2--3/8--8--7---6-
1--0-1-2-2------1--0-1/6--6/4--0--1--0-1-2-2------1--0--1/6--6--5---4-

SOLO
----------------------------------------------------------------------
----------------------------------------------------------------------
----8----10/----------8-8pb--6--5----6--5-----------------------------
10------------6---------------------------------8----6-----8--8pb-6--5
----------------------------------------------------------------------
----------------------------------------------------------------------

----------------------------------------------------------------------
----------------------------------------------------------------------
----8----10/----------8-8pb--6--5----6--5-----------------------------
10------------6---------------------------------8----6-----8--8pb-6--5
----------------------------------------------------------------------
----------------------------------------------------------------------

----------------------------------------------------------------------
----------------------------------------------------------------------
----------------------------------------------------------------------
6--5----6--5----6--5---6--5---5/3----6--5----6--5----6--5----6--5--5/3
----------------------------------------------------------------------
----------------------------------------------------------------------

----------------------------------------------------------------------
----------------------------------------------------------------------
----------------------------------------------------------------------
6--5----6--5----6--5----6--5---5/3---6--5----6--5----6--5----6--5--5/3
----------------------------------------------------------------------
----------------------------------------------------------------------

pb=pre bend
/=slide

Davy S.
Comments