Nirvana - Smells Like Teen Spirit Chords & Tabs

 

Smells Like Teen Spirit Chords & Tabs

Nirvana Chords & Tabs

Version: 4 Type: Bass Tab

Smells Like Teen Spirit Bass Tab

Nirvana
Smells Like Teen Spirit
Author: Ricardo Fonseca


Riff1

G|--------------------------
D|--------------------------
A|------1-1-0------4-4-0---
E|-1-11-------4-44----------
[ Tab from: http://www.guitartabs.cc/tabs/n/nirvana/smells_like_teen_spirit_btab_ver_4.html ]
Riff2
G|------------------------------------
D|------------------------------------
A|--------1-1-1-0----------4-4-4-3----
E|1-1-1-1---------4-4-4-0-------------

Riff3
G|--------------------------
D|--------------------------
A|--------------------------
E|1-1-00-2--1-1-00-44-------

Order:
Riff1 (4x)
Riff2 (10x)
Riff1 (6x)
Riff3 (2x)
Riff2 (10x)
Riff1 (6x)
Riff3 (2x)
Riff2 (10x)
Riff1 (8x)
Riff2 (10x)
Riff1 (10x)


This is my first tab, so donīt be so critic.