Nirvana - Smells Like Teen Spirit Chords & Tabs

 

Smells Like Teen Spirit Chords & Tabs

Nirvana Chords & Tabs

Version: 2 Type: Bass Tab 5 ratings
1 star 2 stars 3 stars 4 stars 5 stars
comments

Smells Like Teen Spirit Bass Tab

Band: Nirvana
Song: Smells Like Teen Spirit
Album: Nevermind & Greatest Hits Album
STANDARD TUNING
Tabbed By: DsTrBnDaPeAcE
KEY: /= Slide Up or Down
     x= Muted Note

This is the best version of SLTS for bass out there on the web.No one gets the sliding stuff right, but here I do so Enjoy. Oh and yes, i know the song is spelled wrong BUT i was so tired of seeing such bad tabs 
for this song getting on here so I had to get mine on. Belive me, this is 100% correct.
I spent alot of time to make sure this is 100% correct, Its an easy song, just get the timing down
and this is a fun song to play in a band.


Intro Pt1  Intro Pt2
G-------    ---------------------------------
D-------    ---------------------------------
A------- x1 ---------------------------------   x4
E—1/121    -1--1-1--1/6-6-7--4—-4-4—-4/9-98
[ Tab from: http://www.guitartabs.cc/tabs/n/nirvana/smells_like_teen_spirit_btab_ver_2.html ]
Chorus
G------------------------------------
D------------------------------------   x6
A--------xxx1-1-1/3-------xxx4-4-4/2- (Muted Notes Will Help With 
E--1--1-1-----------4--4-4-----------  Timing & It sounds a lot better)

Verse
G------------------------------------
D------------------------------------
A----------1-1-1/3---------4-4-4/2---   x10
E--1-1-1-1---------4-4-4-4-----------

Chorus
G------------------------------------
D------------------------------------   x6
A--------xxx1-1-1/3-------xxx4-4-4/2- (Muted Notes Will Help With 
E--1--1-1-----------4--4-4-----------  Timing & It sounds a lot better)


Bridge
G-------------------------------------
D-------------------------------------            Don’t Slur Notes
A-------3-------------3-3-3-3---------  x2
E---1-1-----1-2-2--------------------4--2--2--------

Play After 2nd Bridge

Chorus
G------------------------------------
D------------------------------------   x8
A--------xxx1-1-1/3-------xxx4-4-4/2- 
E--1--1-1-------------------4--4-4------------------

Then Repeat from Verse



This is my first tab.  Drop me a line if u see something wrong with it.
		Good Luck/Have Fun
Comments