Nirvana - Smells Like Teen Spirit Chords & Tabs

 

Smells Like Teen Spirit Chords & Tabs

Nirvana Chords & Tabs

Version: 10 Type: Bass Tab 0 ratings
1 star 2 stars 3 stars 4 stars 5 stars
comments

Smells Like Teen Spirit Bass Tab

nirvana
teen spirit         \=slide down

intro riff 1 played 4 times

1 -------------------------------------
2 -------------------------------------
3 -------22--------55------------------
4 2-22-22--5-55--55--------------------

verses riff 2
[ Tab from: http://www.guitartabs.cc/tabs/n/nirvana/smells_like_teen_spirit_btab_ver_10.html ]
1 -------------------------------------
2 -------------------------------------
3 ----222\----555\----222\----555\----- 
4 2222----5555----2222----5555---------

chorus repeat riff 1 x8

riff 3 after chorus bit

1 ---------------
2 ---------------
3 --------22----- x2
4 22-33-22--55---

repeat riff 2 for verse 2

chorus riff 1 x8

after chorus bit riff 3 x2

repeat riff 2 listen to song for how many times

chorus riff 1 for the end of song

that should be it if not then fuck me

tabbed by psychomaggot666
Comments