Nirvana - Smells Like Teen Spirit Chords & Tabs

 

Smells Like Teen Spirit Chords & Tabs

Nirvana Chords & Tabs

Version: 1 Type: Bass Tab 12 ratings
1 star 2 stars 3 stars 4 stars 5 stars
comments

Smells Like Teen Spirit Bass Tab

Smells Like Teen Spirit - Nirvana

*corrected tab

        Intro/Chorus/Solo
G|-----|------------------------------------|
D|-----|-----------------------------------o|
A|-----|---------1-1-1/3----------4-4-4-3\-o|
E|-4/6\|1--1-1-----------4--4-4-------------|
[ Tab from: http://www.guitartabs.cc/tabs/n/nirvana/smells_like_teen_spirit_btab.html ]
Verse
G|------------------------------------|
D|-----------------------------------o|
A|--------1-1-1-1/3---------4-4-4-3\-o|
E|1-1-1-1-----------4-4-4-4-----------|

Bridge
G|----------------------------|
D|---------------------------o|
A|------------3--3-3-1-1-----o|
E|1-1-0-1-2-2------------4-3--|

Transcribed by Arrsenic@aol.com
Corrected by Achilles (blue_sincere@hotmail.com) 


Comments