Nirvana - Sliver Chords & Tabs

 

Sliver Chords & Tabs

Nirvana Chords & Tabs

Version: 5 Type: Tab 0 ratings
1 star 2 stars 3 stars 4 stars 5 stars
comments

Sliver Tab

intro is on bass then chourus is

chorus (w/distortion):

e-----------------------------------------------------------------
b-----------------------------------------------------------------
g----------5-5-5-5------------------------------------------------
d--7-7-7-7-5-5-5-5------------------------------------------------
a--7-7-7-7-3-3-3-3------------------------------------------------
e--5-5-5-5--------------------------------------------------------

verse (clean):

e------------------------------------------------------------------
b------------------------------------------------------------------
g--5-5-5---------5-------------------------------------------------
d--5-5-5--3-3-3--5-8-7-5-7-8---------------------------------------
a--3-3-3--3-3-3--3-8-7-5-7-8---------------------------------------
e---------1-1-1----6-5-3-5-6---------------------------------------

chorus (w/distortion):

e-----------------------------------------------------------------
b-----------------------------------------------------------------
g----------5-5-5-5------------------------------------------------
d--7-7-7-7-5-5-5-5------------------------------------------------
a--7-7-7-7-3-3-3-3------------------------------------------------
e--5-5-5-5--------------------------------------------------------


verse (w/distortion):
[ Tab from: http://www.guitartabs.cc/tabs/n/nirvana/sliver_tab_ver_5.html ]
e------------------------------------------------------------------
b------------------------------------------------------------------
g--5-5-5---------5-------------------------------------------------
d--5-5-5--3-3-3--5-8-7-5-7-8---------------------------------------
a--3-3-3--3-3-3--3-8-7-5-7-8---------------------------------------
e---------1-1-1----6-5-3-5-6---------------------------------------


chorus (w/distortion):

e-----------------------------------------------------------------
b-----------------------------------------------------------------
g----------5-5-5-5------------------------------------------------
d--7-7-7-7-5-5-5-5------------------------------------------------
a--7-7-7-7-3-3-3-3------------------------------------------------
e--5-5-5-5--------------------------------------------------------

Last verse:

e--------------------------------------------
b--------------------------------------------
g--5----5----5-------------------------------
d--5----5----5-------------------------------
a--3----3----3-------------------------------
e--------------------------------------------

chorus (w/distortion):

e-----------------------------------------------------------------
b-----------------------------------------------------------------
g----------5-5-5-5------------------------------------------------
d--7-7-7-7-5-5-5-5------------------------------------------------
a--7-7-7-7-3-3-3-3------------------------------------------------
e--5-5-5-5--------------------------------------------------------

end on:

e---------------------------------------
b---------------------------------------
g---5-----------------------------------
d---5-----------------------------------
a---3-----------------------------------
e---------------------------------------



and thats it enjoy!
Comments