Nirvana - Sliver Chords & Tabs

 

Sliver Chords & Tabs

Nirvana Chords & Tabs

Version: 2 Type: Bass Tab 0 ratings
1 star 2 stars 3 stars 4 stars 5 stars
comments

Sliver Bass Tab

NIRVANA
SLIVER
_____________________________________________________________________________
[ Tab from: http://www.guitartabs.cc/tabs/n/nirvana/sliver_btab_ver_2.html ]
Bass Intro And Verse:
G:-----------------------------||
D:-----------------------------||
A:-3--3-3--------3-3-----------||
E:--------1--1-1------5-5-4-5--||


Chorus:
G:---------------------------------||
D:---------------------------------||
A:---------3-3-3-3---------3-3-3-3-||
E:-5--5-5----------5--5-5----------||
                         'Grandma take me home...'
BY MATTY
PLEASE rate this tab!
Comments