Nirvana - Sliver Chords & Tabs

 

Sliver Chords & Tabs

Nirvana Chords & Tabs

Version: 1 Type: Bass Tab 1 rating
1 star 2 stars 3 stars 4 stars 5 stars
comments

Sliver Bass Tab

    
    Sliver- NIRVANA
    >From Incesticide and live gigs.
    
    This is the bass tab for sliver. I noticed that there is no chorus
    in the other versions on the net.
    I am pretty sure this is correct, this is how my band does it and it sounds 
    right (and this is how Krist does it on my video)
    Top string is bottom line.
    
    
    Into/Verse   			   End verse             *Start chrous 
    |------------------------------|-----------------------*--------------
    |------------------------------|-----------------------*--------------
    |--3--33-----3-3-0---0-1-------|-3--33-----3-3-0---0-0-*----3-3-0-----
    |--------1-1-------3-----------|-------1-1-------3-----*1-1-------3-0-
    
    Chorus 		    End chorus    * Start of verse
    |--------------------|--------------*-----------------------
    |--------------------|--------------*-----------------------
    |------3-3-0---------|-----3-3-0----*-3--33-----3-3-0---0-1-
    |--1-1-------3-0-----|-1-1-------3-0*-------1-1-------3-----
    
    Thats it, Tom
    comments are welcome.  
    tomwalk@iaccess.com.au


[ Tab from: http://www.guitartabs.cc/tabs/n/nirvana/sliver_btab.html ]
Comments