Nirvana - Serve The Servants Chords & Tabs

 

Serve The Servants Chords & Tabs

Nirvana Chords & Tabs

Version: 6 Type: Tab 0 ratings
1 star 2 stars 3 stars 4 stars 5 stars
comments

Serve The Servants Tab

   
RIFF 1

E|--------11---|E
B|--11-------11|B
G|--11---------|G  X1
D|--10---------|D
A|--9----------|A
E|-------------|E

RIFF 2

E|---------------------------------0-0--------0-0---|
B|--------------------3---3--------0-0--------0-0---|
G|-----3---3----------------0------0-0--------0-0---| X3
D|---1-------0--2-2-2---2------4------------2-------|
A|-2-----2---------------------4-------4s5--2-------|
E|-----------------------------2-2-----4s5--0------0|

RIFF 3 (just before chorus)

E|----------0---0---|
B|----------0---0---|
G|----------0---0---| X1
D|--2-2-2-2---2---2-|
A|--2-2-2-2---2---2-|
E|--0-0-0-0---0---0-|

RIFF 4 CHORUS (not pedal)

E|-------------------------|E
B|-------------------------|B
G|-----------6--6-6--6-6-6-|G X1
D|-7--7-7-7--6--6-6--6-6-6-|D
A|-7--7-7-7--4--4-4--4-4-4-|A
E|-5--5-5-5----------------|E

RIFF 5 STILL CHORUS

E|-----0---0---0------------|E
B|-----0---0---0------------|B
G|-----0---0---0-6-6--6-6-6-|G X3
D|-7-7---7---7---6-6--6-6-6-|D
A|-7-7---7---7---4-4--4-4-4-|A
E|-5-5---5---5--------------|E

RIFF 6 END OF CHORUS

E|---------------------------------|E
B|---------------------------------|B
G|---------------------------------|G X1
D|4-4-4-4-4-4-4-4--6-6-6-6-6-6-6-6-|D
A|4-4-4-4-4-4-4-4--6-6-6-6-6-6-6-6-|A
E|2-2-2-2-2-2-2-2--4-4-4-4-4-4-4-4-|E

BACK TO RIFF 1 

E|-----11s----|E
B|-11-----11s-|B
G|-11---------|G X1
D|-10---------|D
A|-9----------|A
E|------------|E

BACK TO RIFF 2

E|----------------------------------0-0---------0-0----|E
B|---------------------3---3--------0-0---------0-0----|B
G|-----2----2----------------0------0-0---------0-0----|G X3
D|---1--------0--2-2-2---2------4-------------2--------|D
A|-2-----2----------------------4--------4s5--2--------|A
E|------------------------------2-2------4s5--0------0-|E

BACK TO RIFF 3

E|---------0---0---|E
B|---------0---0---|B
G|---------0---0---|G X1
D|-2-2-2-2---2---2-|D
A|-2-2-2-2---2---2-|A
E|-0-0-0-0---0---0-|E

BACK TO RIFF 4

E|-------------------------|E
B|-------------------------|B
G|-----------6--6-6--6-6-6-|G X1
D|-7--7-7-7--6--6-6--6-6-6-|D
A|-7--7-7-7--4--4-4--4-4-4-|A
E|-5--5-5-5----------------|E

BACK TO RIFF 5
[ Tab from: http://www.guitartabs.cc/tabs/n/nirvana/serve_the_servants_tab_ver_6.html ]
E|------0---0---0------------|E
B|------0---0---0------------|B
G|------0---0---0-6-6--6-6-6-|G X3
D|-7--7---7---7---6-6--6-6-6-|D
A|-7--7---7---7---4-4--4-4-4-|A
E|-5--5---5---5--------------|E

BACK TO RIFF 6 

E|----------------------------------|E
B|----------------------------------|B
G|----------------------------------|G X1
D|-4-4-4-4-4-4-4-4--6-6-6-6-6-6-6-6-|D
A|-4-4-4-4-4-4-4-4--6-6-6-6-6-6-6-6-|A
E|-2-2-2-2-2-2-2-2--4-4-4-4-4-4-4-4-|E

A NEW VERSION OF RIFF 1

E|-----11s-|E
B|-11--11s-|B
G|-11------|G X1
D|-10------|D
A|-9-------|A
E|---------|E

SOLO

E|--------------------------------------------------0-0-0------------------
B|--------------------------------------------------0-0-0------------------
G|-4hb-4-4-4-4-4-4-4-4-4-4rb-4-2-0------------------0-0-0------------------
D|-------------------------------------------------------------------------
A|---------------------------------------------------------2hb-2-2-2-2rb-2-
E|---------------------------------3hb-3-3-3-3rb-3-------------------------

  -----------------------------0-0--0-0--0-0---------------------------------
  -----------------------------0-0--0-0--0-0---------------------------------
  -----------------------------0-0--0-0--0-0---------------------------------
  --------------------------------------------14hb-14-14-14-14-14-14rb-14----
  s4gb-4-4-4-4-4s2-2-2-2rb-2-2----------------16hb-16-16-16-16-16-16rb-16----
  ------------------------------------------------------------------------14s

  ------------------------------------------------------------------------------
  ------------------------------------------------------------------------------
  -----------------------------------------------------------------------8-8-8-8
  ---------------------------------------------------------8h9-9-8-7-7s9-9-9-9-9
  -------------------------------------------8-7-8-8h9-8-9----------------------
  -5gb-5-5-5-5-5-5s7-7gb-7-7-7-7s9-9-9-9-9s7------------------------------------

  ----------------|E
  ----------------|B
  ----------------|G X1
  -9s8-8s7-7s6-6s5|D
  ----------------|A
  ----------------|E

BACK TO ALL 3 CHORUS RIFFS

THEN RIFF 1

THEN FINALLY RIFF 7
E|------|E
B|-PH11-|B
G|------|G X6
D|------|D
A|------|A
E|------|E
Comments