Nirvana - Serve The Servants Chords & Tabs

 

Serve The Servants Chords & Tabs

Nirvana Chords & Tabs

Version: 3 Type: Bass Tab 0 ratings
1 star 2 stars 3 stars 4 stars 5 stars
comments

Serve The Servants Bass Tab

NIRVANA
SERVE THE SERVANTS

Verse:
G:--------8----8---------9-9---9-------11---------9--|
D:------7----7----7----9-----9---9-------------------|
A:---9---------------7--------------9---------7------|
E:-7-------------------------------------------------|
[ Tab from: http://www.guitartabs.cc/tabs/n/nirvana/serve_the_servants_btab_ver_3.html ]
Chorus:
G:-------------------------------|
D:-------------------------------|
A:-0--0-0--0-0-0--4--4-4--4-4-4--|
E:-------------------------------|

'The Legandary Divorce' Part:
G:------------------13--|
D:------------------12--|
A:----------------------|
E:-2-2-2-2-3-3-3-3------|

BY MATTY
PLEASE rate this tab!
Comments