Nirvana - Serve The Servants Chords & Tabs

 

Serve The Servants Chords & Tabs

Nirvana Chords & Tabs

Version: 2 Type: Bass Tab 0 ratings
1 star 2 stars 3 stars 4 stars 5 stars
comments

Serve The Servants Bass Tab

Song Title: Serve Servants
Artist: Nirvana
----------------------------------------------

This is what I think about the Bass Tab. The other posted there sounds weird
even when you tune it to the song. So I had to make few corrections.
[ Tab from: http://www.guitartabs.cc/tabs/n/nirvana/serve_the_servants_btab_ver_2.html ]
VERSE:
|------------------------------------------------------------------------------|
|-------------------------------------------5-------4---2---4------------------|
|---7-------------------5---7-7-7---5---7---------------------------7--5---7---|
|-------7-7-7---5---7---------------------------2---------------0--------------|

CHORUS: Serve the servants...
|-------------------------------------|
|-------------------------------------|
|-----------------4-4-4---3---2---1---|
|---5-5---4---5-----------------------|

That legendary divorce....
|-----------------------13---|
|-----------------------12---|
|----------------------------|
|---2-2-2-2---3-3-3-3--------|

If you have any problems...oh well..

Submitted by:  Eric Z ()


Comments