Nirvana - Serve The Servants Chords & Tabs

 

Serve The Servants Chords & Tabs

Nirvana Chords & Tabs

Version: 1 Type: Bass Tab 0 ratings
1 star 2 stars 3 stars 4 stars 5 stars
comments

Serve The Servants Bass Tab

Artist:Nirvana
Music :Serve the Servants
Album :In Utero

Verse
D--------------------------------------------------------------
G--------------------------------------------------------------
A---------------4--6--4--6--4--6-7-8--8--8--6--4--6--4--6--4---
E--6--4--6--4--6----------------------------------------------6(go back)
   teenage    | paid off well  now I'm boredn'old
   angst has  |
[ Tab from: http://www.guitartabs.cc/tabs/n/nirvana/serve_the_servants_btab.html ]
Chorus
D-------------------------------------
G-------------------------------------
A------------------1--3--1--3--3--1---
E----4--3--4--3--4-------------------4(go back)
     Serve the Servents......oh no

Bridge
D-----------------------------------
G-----------------------------------
A-----------------------------------
E--11111111111-2222222222222222-3---(let ring)
That legendery divorce is such a bore

At the end of the Verse and the chorus,the last note is actually the first 
because it's all glued up.So when you go back don't play the first 6(verse) 
or the first 4(chorus),play the last 6 and four and the number that comes 
right after.
 
tabbed by:
Eduardo Albuquerque
http://rocking.to/Ignoreland
ignoreland@rocking.to

Comments