Nirvana - Seasons In The Sun Chords & Tabs

 

Seasons In The Sun Chords & Tabs

Nirvana Chords & Tabs

Version: 4 Type: Tab

Seasons In The Sun Tab

   
I KNOW this is 100% accurate

   Db   Eb   G#
e---------4-|
b-6---8---4-|
G-6---8---5-|
D-6---8---6-|
A-4---6---6-|
E---------4-|

Intro:
e--------|
b------6-|
G------6-|
D------6-|
A-3-33-4-|
E-2-22---| 2X

Verse

He's just picking out notes in a chord. He messes up some, but not too bad. Here is the 
he does most of the time:

                                   When he goes to G#:
e---------                e---------|
b----x----                b-----x---|
G---x-x-x-               G-----x----|
D--x---x--               D---x------|
A-x-------               A--x-------|
E---------                E-x-------|
[ Tab from: http://www.guitartabs.cc/tabs/n/nirvana/seasons_in_the_sun_tab_ver_4.html ]
(No chord)
Good Bye to you my special friend
Db
We've known each other since we were
Eb
nine or ten together we've climbed hills and
Db
trees learned of love and A-B-
Eb   G#
C's  skinned our hearts and skinned our knees
Db
Good Bye my friend its hard to die when all the
birds are singing
Eb
in the sky now that spring is in the
Db
air pretty girls are every-
Eb       G#
where think of me and i'll be there

Chorus
he does the same pattern in picking except for going to the G#. It is similar but not
exactly. Just do whatever fills comfortable to you

Db
We had joy we had fun we had
Eb
seasons in the sun but the
G#
stars that we reached were just

End of chorus (Goes right with the words):
    Star  Fish  On  A  Beach
e---------------------|
b---------------------|
G---------------------|
D---------------------|
A-1---1----1--3-4-----|
E---------------------|

On the Last Chorus they go up a fret