Nirvana - Seasons In The Sun Chords & Tabs

 

Seasons In The Sun Chords & Tabs

Nirvana Chords & Tabs

Version: 3 Type: Tab 0 ratings
1 star 2 stars 3 stars 4 stars 5 stars
comments

Seasons In The Sun Tab

---------------------------------------------------------------------
		     SEASONS IN THE SUN - Nirvana
---------------------------------------------------------------------
Tabbed by: Jaston
Email: jskzx3@yahoo.com

Tuning: Standard


INTRO:
e|-------------------------------------------------------------------|
B|-------------------------------------------------------------------|
G|---------6-------------6-------------------------------------------|
D|---------6-------------6-------------------------------------------|
A|--3-3/4--4------3-3/4--4-------------------------------------------|
E|-------------------------------------------------------------------|
[ Tab from: http://www.guitartabs.cc/tabs/n/nirvana/seasons_in_the_sun_tab_ver_3.html ]
VERSE/CHORUS:
e|-------------------------------------------------------------------|
B|--------6---------------6---------------8---------------8----------|
G|------6----6---6------6----6---6------8----8---8------8----8---8---|
D|----6--------6------6--------6------8--------8------8--------8-----|
A|--4---------------4---------------6---------------6----------------|
E|-------------------------------------------------------------------|

e|-------------------------------------------------------------------|
B|--------6---------------6---------------8---------------8----------|
G|------6----6---6------6----6---6------8----8---8------8----8---8---|
D|----6--------6------6--------6------8--------8------8--------8-----|
A|--4---------------4---------------6---------------6----------------|
E|-------------------------------------------------------------------|

OUTRO:
e|-------------------------------------------------------------------|
B|-------------------------------------------------------------------|
G|--6----7-----------------------------------------------------------|
D|--6----7-----------------------------------------------------------|
A|--4----5-----------------------------------------------------------|
E|-------------------------------------------------------------------|



/  slide up


First tab, let me know.
======================================================================
Comments