Nirvana - Scoff Chords & Tabs

 

Scoff Chords & Tabs

Nirvana Chords & Tabs

Version: 4 Type: Tab 0 ratings
1 star 2 stars 3 stars 4 stars 5 stars
comments

Scoff Tab

Band/artist: Nirvana
Album: Bleach
Song: Scoff (track 8)
Year: 1989

Regular tuning

INTRO:
e-----------------------|
b-----------------------|
g-----------------------|
d-----------------------| x8
a--4--4--3--2--4--4--3--|
e--2--2--1--0--2--2--1--|

VERSE
e-----------------------|
b-----------------------|
g-----------------------|
d-----------------------| x8
a--4--4--3--2--4--4--3--|
e--2--2--1--0--2--2--1--|

CHORUS:
e---------------|
b---------------|
g---------------|
d---------------| play this bit 14 times
a--4--4--3--0---|
e--2--2---------|

THEN PLAY:
e-------------------------|
b-------------------------|
g-------------------------|
d-------------------------| play this bit 1 time
a--4--4--5--5--6--6--7--7-|
e--2--2--3--3--4--4--5--5-|

THEN PLAY:
e-------------------------------------|
b-------------------------------------|
g--5--5--5-5-5--7--7-7-7--------------|
d--5--5--5-5-5--7--7-7-7--------------| play this bit 8 times
a--3--3--3-3-3--5--5-5-5--------------|
e--------------------------5--6--5--3-|
[ Tab from: http://www.guitartabs.cc/tabs/n/nirvana/scoff_tab_ver_4.html ]
THEN PLAY:
e------------------------------------------------------------------|
b------------------------------------------------------------------|
g------------------------------------------------------------------|
d--9--9--8--7--9--9--8---9--9--8--7--9--9--8---9--9--8--7--9--9--8-|
a--7--7--6--5--7--7--6---7--7--6--5--7--7--6---7--7--6--5--7--7--6-|
e------------------------------------------------------------------|

e-------------------|
b-------------------|
g-------------------|
d--9--9--8--7-------|
a--7--7--6--5-------|
e--------------12\--|

Then play the verse again 12 times.

Then play the chorus again, the same number of times.

SOLO:
e-----------5------------5------------5------------5-|
b-----------5------------5------------5------------5-|
g---------5------------5------------5------------5---|
d----------------------------------------------------|
a-----3------------3------------3------------3-------|
e--2------------2------------2------------2----------|

e---------------------------------------|
b---------------------------------------|
g--7-6-7-6-7-6-7/9-9-8-9-8-9-8-9/11-11--|
d--7-6-7-6-7-6-7/9-9-8-9-8-9-8-9/11-11--| play this bit of the solo twice
a---------------------------------------|
e---------------------------------------|

Then play the verse again 12 times.

Then play the chorus. Then play the last bit of the chorus twice.

And there you have it. Any comments or corrections, please submit them. And please rate 
Thanks a lot!
Comments