Nirvana - Scoff Chords & Tabs

 

Scoff Chords & Tabs

Nirvana Chords & Tabs

Version: 2 Type: Tab 0 ratings
1 star 2 stars 3 stars 4 stars 5 stars
comments

Scoff Tab

                                         Scoff
                                        Nirvana

Intro/Verse
         palm muted
  |------------------------|                       
|----------------------------|
|----------------------------|
|----------------------------|
|----------------------------|
|-4---4---3---2---4---4---3--|
|-2---2---1---0---2---2---1--|
In my eyes,__ I'm not lazy...

2nd Verse                        3rd verse Following singing
|-------------------------------||------------------------------|
|-------------------------------||------------------------------|
|-------------------------------||------------------------------|
|-------------------------------||------------------------------|
|-4---4---3---0---4---4---3---0-||---4----5---5---6---6---7---7-|
|-2---2-----------2---2---------||---2----3---3---4---4---5---5-|
give me back___ my alcohol...   give me back my, give back my, give me back!

Chorus
|-------------------------------||------------------------------|
|-------------------------------||------------------------------|
|-5----5----5--------------7----||-7----7-----------------------|
|-5----5----5--------------7----||-7----7-----------------------|
|-3----3----3--------------5----||-5----5-----------------------|
|---------------0-----4---------||------------0---4---5----5----|
heal___ a million, kill___ a million

4th Verse
|-------------------------------|
|-------------------------------|
|-------------------------------|
|-------------------------------|
|---9--9--8--7---9--9--8--------|
|---7--7--6--5---7--7--6--------|
Solo
                        let ring-------|
|-------------------------------||------------------------------|
|-------------------------------||--0---------------------------|
|-------------------------------||------------------------------|
|--4----------------------------||------------------------------|
|--4-----------------3----------||------------------------------|
|--2----------------------------||---------------------0--------|
[ Tab from: http://www.guitartabs.cc/tabs/n/nirvana/scoff_tab_ver_2.html ]
Solo(continued)
                                      let ring--------|                         let ring------|
|-------------------------------||----------5--------5----------||-------------------------------|
|-------------------------------||----------5--------5----------||-------------------------------|
|-------------------------------||--4---------------------------||-------------------------------|
|---4---------------------------||--4---------------------------||---4---------------------------|
|---4-------------------3-------||------------------------------||---4--------------------3------|
|---2---------------------------||--------------------------0---||---2---------------------------|

Solo(continued)
 let ring-----------|    let ring----------------------|
|----------5-----5-------------||-------------------------------||---------------5---------------|
|----------5-----5-------------||-------------------------------||---------------5------------7--|
|---------------------0--------||-------------------------------||---------------------------/7--|
|-4----4-----------------------||-------------------------------||-------------------------4/-7--|
|---------------------4--------||--4----------------------------||--3----------------------------|
|------------------------------||--2-----------------2----------||-------------------------------|

Solo(continued)
|------------------------------||-------------------------------|
|---7---6---7---6---7---6---7--||-9---7---9---7---9---7---9/11--|
|---7---6---7---6---7---6---7--||-9---8---9---8---9---8---9/11--|
|------------------------------||-------------------------------|
|------------------------------||-------------------------------|
|------------------------------||-------------------------------|

Solo(continued)
|------------------------------||-------------------------------|
|---7---6---7---6---7---6---7--||-9---7---9---7---9---7---9/11--|
|---7---6---7---6---7---6---7--||-9---8---9---8---9---8---9/11--|
|------------------------------||-------------------------------|
|------------------------------||-------------------------------|
|------------------------------||-------------------------------|


Solo(continued)
|------------------------------||-------------------------------|
|---7---6---7---6---7---6---7--||-9---7---9---7---9---7---9/11--|
|---7---6---7---6---7---6---7--||-9---8---9---8---9---8---9/11--|
|------------------------------||-------------------------------|
|------------------------------||-------------------------------|
|------------------------------||-------------------------------|

Intro x2 
1st verse x8
2nd verse x6
3rd verse x1
chorus x6
4th verse
1st verse x10
2nd verse x6
3rd verse x1
chorus x6
4th verse
solo
1st verse x10
2nd verse x6
3rd verse x1
chorus x6
4th verse
                 Thanx and I hope this helps any of you guys.
           Keep rocking out there. Nirvana rules!R.I.P. Kurt Cobain
Comments