Nirvana - Scoff Chords & Tabs

 

Scoff Chords & Tabs

Nirvana Chords & Tabs

Version: 3 Type: Bass Tab 0 ratings
1 star 2 stars 3 stars 4 stars 5 stars
comments

Scoff Bass Tab

Nirvana - Scoff (Cobain, Novoselic, Channing, Everman); Album: Bleach

Legend:
h - hammer on
p - pull off
b - bend string
/ - slide down
\ - slide up
~ - ring
x - palm mute


Intro: x8
1 * ---------------------|
2 * ---------------------|
3 * ---------------------|
4 * --2-2-2-0--2-2-0-----|

Verse 1: x8 ... "In my eyes..."
1 * ---------------------|
2 * ---------------------|
3 * ---------------------|
4 * --2-2-2-0--2-2-0-----|

Pre-Chorus: x8 ... "Gimme back my alcohol..."
1 * ----------------------|
2 * ----------------------|
3 * ----------------------|
4 * --2-2-2-0--2-2-2-0----|

Chorus: ... "Heal a million..."
x8
1 * -------------------------------------|
2 * -------------------------------------|
3 * --3--3--3-2-3--5--5-5--0-2-1-0-------|
4 * -------------------------------------|
x3
1 * ---------------------|
2 * ---------------------|
3 * ---------------------|
4 * --2-2-2-0--2-2-0-----|

1 * ---------------------|
2 * ---------------------|
3 * ---------------------|
4 * --2-2-2-0---2~-------|
x4
1 * ---------------------|
2 * ---------------------|
3 * ---------------------|
4 * --2-2-2-0--2-2-0-----|

Verse 2: x8 ... "In my eyes..."
1 * ---------------------|
2 * ---------------------|
3 * ---------------------|
4 * --2-2-2-0--2-2-0-----|
[ Tab from: http://www.guitartabs.cc/tabs/n/nirvana/scoff_btab_ver_3.html ]
Pre-Chorus: x8 ... "Gimme back my alcohol..."
1 * ----------------------|
2 * ----------------------|
3 * ----------------------|
4 * --2-2-2-0--2-2-2-0----|

Chorus: x8 ... "Heal a million..."
1 * -------------------------------------|
2 * -------------------------------------|
3 * --3--3--3-2-3--5--5-5--0-2-1-0-------|
4 * -------------------------------------|
x3
1 * ---------------------|
2 * ---------------------|
3 * ---------------------|
4 * --2-2-2-0--2-2-0-----|

1 * ---------------------|
2 * ---------------------|
3 * ---------------------|
4 * --2-2-2-0---2~-------|

Solo: x20
1 * ---------------------|
2 * ---------------------|
3 * ---------------------|
4 * --2-2-2-0--2-2-0-----|

Verse 3: x8 ... "In my eyes..."
1 * ---------------------|
2 * ---------------------|
3 * ---------------------|
4 * --2-2-2-0--2-2-0-----|

Pre-Chorus: x8 ... "Gimme back my alcohol..."
1 * ----------------------|
2 * ----------------------|
3 * ----------------------|
4 * --2-2-2-0--2-2-2-0----|

Chorus: x8 ... "Heal a million..."
1 * -------------------------------------|
2 * -------------------------------------|
3 * --3--3--3-2-3--5--5-5--0-2-1-0-------|
4 * -------------------------------------|

Outro:
x3
1 * ---------------------|
2 * ---------------------|
3 * ---------------------|
4 * --2-2-2-0--2-2-0-----|

1 * ---------------------|
2 * ---------------------|
3 * ---------------------|
4 * --2-2-2-0---2~-------|
x4
1 * ---------------------|
2 * ---------------------|
3 * ---------------------|
4 * --2-2-2-0--2-2-0-----|
Comments