Nirvana - Scoff Chords & Tabs

 

Scoff Chords & Tabs

Nirvana Chords & Tabs

Version: 1 Type: Bass Tab 0 ratings
1 star 2 stars 3 stars 4 stars 5 stars
comments

Scoff Bass Tab

Song: Scoof
Artist:Nirvana
Album:Bleach
Tabbed by Freak

verse
G|----------------------------------------
D|----------------------------------------
A|----------------------------------------
E|-22-0-222-0-22-0-222-0------------------

pre-chorus
G|----------------------------------------
D|----------------------------------------
A|---2------------------------------------
E|-22-0-22--------------------------------
[ Tab from: http://www.guitartabs.cc/tabs/n/nirvana/scoff_btab.html ]
bridge
G|----------------------------------------
D|----------------------------------------
A|----------------------------------------
E|-22--33--44-----------------------------

chorus
G|----------------------------------------
D|----------------------------------------
A|-33-0-555-2-1-2-------------------------
E|----------------------------------------

post-chorus
G|----------------------------------------
D|----------------------------------------
A|-77-5--777-5----------------------------
E|----------------------------------------

Any questions/corrections/suggestions? Mail me.
freakinbass@galoforte.com.br

Comments