Nirvana - School Chords & Tabs

 

School Chords & Tabs

Nirvana Chords & Tabs

Version: 5 Type: Tab 0 ratings
1 star 2 stars 3 stars 4 stars 5 stars
comments

School Tab

Band/artist: Nirvana
Album: Bleach
Song: School (tracl 4)
Year: 1989

Regular tuning

INTRO:
e---------------------------------------|
b---------------------------------------|
g---------------------------------------|
d---------------------------------------| x8
a------------)r-----)r------------------|
e--0--0--0--5---0--5--0--0--0--0--0--5--|

VERSE:
e---------------------------------------|
b---------------------------------------|
g---------------------------------------|
d---------------------------------------| x4
a------------)r-----)r------------------|
e--0--0--0--5---0--5--0--0--0--0--0--5--|

CHORUS:
e------------------------------------0---0---0-0--0---0-0-0-0-0--------|
b------------------------------------0---0---0-0--0---3-3-3-3-3--------|
g--5---5--5-5--5---------------------x---x---x-x--x-0-2-2-2-2-2--------|
d--5---5--5-5--5-0--7-7-7-7-7-7-7----2---2---2-2--2-0-0-0-0-0-0--------|
a--3---3--3-3--3-0--7-7-7-7-7-7-7----2---2---2-2--2--------------------|
e-------------------5-5-5-5-5-5-5----0---0---0-0--0--------------------|

e-------------------------------|
b-------------------------------|
g--5----5--5-5--5---------------|
d--5----5--5-5--5-0-7-7-7-7-7-7-|
a--3----3--3-3--3-0-7-7-7-7-7-7-|
e-------------------5-5-5-5-5-5-|

VERSE:
e---------------------------------------|
b---------------------------------------|
g---------------------------------------|
d---------------------------------------| x6
a------------)r-----)r------------------|
e--0--0--0--5---0--5--0--0--0--0--0--5--|

CHORUS:
e----------------------------------0---0---0-0--0---0-0-0-0-0--------|
b----------------------------------0---0---0-0--0---3-3-3-3-3--------|
g--5---5--5-5--5-------------------x---x---x-x--x-0-2-2-2-2-2--------|
d--5---5--5-5--5-0--7-7-7-7-7-7----2---2---2-2--2-0-0-0-0-0-0--------|
a--3---3--3-3--3-0--7-7-7-7-7-7----2---2---2-2--2--------------------|
e-------------------5-5-5-5-5-5----0---0---0-0--0--------------------|
[ Tab from: http://www.guitartabs.cc/tabs/n/nirvana/school_tab_ver_5.html ]
e-------------------------------|
b-------------------------------|
g--5----5--5-5--5---------------|
d--5----5--5-5--5-0-7-7-7-7-7-7-|
a--3----3--3-3--3-0-7-7-7-7-7-7-|
e-------------------5-5-5-5-5-5-|

BRIDGE:
e---------------------------------|
b-------------------------13-13---|
g-------------------12----12-12---|
d-------------11----11------------| x4
a-------------10--x---------------|
e--0--0--0------------------------|

SOLO:
e---)--)(----)(-----------------------------------------------------------|
b--2--2-(2)-2-(2)----------------------------------7----------------------|
g--2--2-(2)-2-(2)-0------------2-0-2-(2)-0-2/7-7-7-7-7-9-(11)\----0-------|
d-------------------2-0-2--------------------------------------/9---9^7^0-|
a-------------------------------------------------------------------------|
e-------------------------3/0---------------------------------------------|

e-------------------------------------------------------------------------|
b-------------)------------------)----------------------------------------|
g--------2-2-2-2-2-2~~~~~-----0-2-0-0-2-(0)-------------2---2/7-7-7-7-9-7-|
d--9^7^0------------------0-0---------------2-------2-5---5---------------|
a-------------------------------------------------5-----------------------|
e---------------------------------------------5-0-------------------------|

e------------------)---)-10-10-10^9^7----7-----------------------------------|
b--11-8---8^10-8^10--10---------------10---10-10-10^8------------------------|
g-------0---------------------------------------------9-7-7-9-7-7-9-9-9~~~~~-|
d----------------------------------------------------------------------------|
a----------------------------------------------------------------------------|
e----------------------------------------------------------------------------|

e-----------------------------------------------|
b-------------------)---------------------------|
g--9-7-7-7\6-6-6\4-4--2-2^0-2~~~~~~~~~~~--------|
d-----------------------------------------------|
a-----------------------------------------------|
e-----------------------------------------(12---|\

For the "you're in high school again" part a bass guitar only plays. Then play the chorus twice.

Then that's it! Please rate me and tell me what you think. Thanks!
Comments