Nirvana - School Chords & Tabs

 

School Chords & Tabs

Nirvana Chords & Tabs

Version: 3 Type: Tab 0 ratings
1 star 2 stars 3 stars 4 stars 5 stars
comments

School Tab

   
-------------------------------------------------------------------------------
			     School - Nirvana
-------------------------------------------------------------------------------

Tabbed by:Nathan Rhind
Email:

Tuning:Standard
e|---------------------------------------------------------------------------|
B|---------------------------------------------------------------------------|
G|---------------------------------------------------------------------------|
D|---------------------------------------------------------------------------|
A|---------------------------------------------------------------------------|
E|-0--0-0-B6--0-0-B6--0-0-0-0-0-0-B6-----------------------------------------|

e|---------------------------------------------------------------------------|
B|---------------------------------------------------------------------------|
G|---------------------------------------------------------------------------|
D|---------------------------------------------------------------------------|
A|---------------------------------------------------------------------------|
E|-0--0-0-B6--0-0-B6--0-0-B6--0-0-0-B6---------------------------------------|

While palm muted the end of this riff gradually bend the five's:
e|---------------------------------------------------------------------------|
B|---------------------------------------------------------------------------|
G|---------------------------------------------------------------------------|
D|-5--5-5--5-5---------------------------------------------------------------|
A|-3--3-3--3-3---------------------------------------------------------------|
E|--------------PM5PM5PM5PM5PM5PM5-0-----------------------------------------|
[ Tab from: http://www.guitartabs.cc/tabs/n/nirvana/school_tab_ver_3.html ]
Once again while palm muted the end of this riff gradually bend the five's:
e|---------------------------------------------------------------------------|
B|---------------------------------------------------------------------------|
G|---------------------------------------------------------------------------|
D|-9--9-9--9-9--9-9----7-7-7-7--7--5--5-5--5-5-------------------------------|
A|-7--7-7--7-7--7-7----5-5-5-5--5--3--3-3--3-3-------------------------------|
E|----------------------------------------------PM5PM5PM5PM5PM5PM5-0---------|

e|---------------------------------------------------------------------------|
B|--------------------------14-14-14-----------------------------------------|
G|-----11-11---12-12-12-12--14-14-14-----------------------------------------|
D|-----10-10---11-11-11-11---------------------------------------------------|
A|------9-9----10-10-10-10---------------------------------------------------|
E|-0-------------------------------------------------------------------------|

e|---------------------------------------------------------------------------|
B|--------------------------12-12-12-----------------------------------------|
G|-----11-11---12-12-12-12--12-12-12-----------------------------------------|
D|-----10-10---11-11-11-11---------------------------------------------------|
A|------9-9----10-10-10-10---------------------------------------------------|
E|-0-------------------------------------------------------------------------|

e|---------------------------------------------------------------------------|
B|---------------------------------------------------------------------------|
G|-----11-11---12-12-12-12---------------------------------------------------|
D|-----10-10---11-11-11-11---------------------------------------------------|
A|------9-9----10-10-10-10--12\14-14\----------------------------------------|
E|-0-------------------------------------------------------------------------|



| /  slide up
| \  slide down
| h  hammer-on
| p  pull-off
| ~  vibrato
| +  harmonic
| x  Mute note

===============================================================================
Comments