Nirvana - School Chords & Tabs

 

School Chords & Tabs

Nirvana Chords & Tabs

Version: 3 Type: Bass Tab 0 ratings
1 star 2 stars 3 stars 4 stars 5 stars
comments

School Bass Tab

Nirvana
School
Tabbed by:Eric Hutchison

G:------------------------------- 
D:------------------------------- 
A:------------------------------- 
E:-0--0-0-5^--0-5^-0-5^-0-0-5^^-- 
[ Tab from: http://www.guitartabs.cc/tabs/n/nirvana/school_btab_ver_3.html ]
Fill Before Chorus 
G:------------------------------- 
D:------------------------------- 
A:------------------------------- 
E:-0--0-0-5^--0-5^-0-5^-0-0-0-0-- 

Chorus 
G:-------------------------------------|---------------------- 
D:-------------------------------------|---------------------- 
A:-3--3--3-3---------7--7--7-7--5-5-5-5|3--3--3-3------------- 
E:-----------5-5-5-5-------------------|----------5-5-5-5--5-5
Comments