Nirvana - School Chords & Tabs

 

School Chords & Tabs

Nirvana Chords & Tabs

Version: 1 Type: Bass Tab 1 rating
1 star 2 stars 3 stars 4 stars 5 stars
comments

School Bass Tab

   
Song: School
Artist: Nirvana
Tabbed by Freak

verse
G|----------------------------------------------------
D|----------------------------------------------------
A|----------------------------------------------------
E|-0-00-5^5-0-5^5-0-5^5-0-5^50------------------------

chorus
G|----------------------------------------------------
D|----------------------------------------------------
A|--3--3-3-333-00000-7-7-7-777-55555-3-3-3-333-00000--
E|----------------------------------------------------
[ Tab from: http://www.guitartabs.cc/tabs/n/nirvana/school_btab.html ]
solo(a)
G|----------------------------------------------------
D|----------------------------------------------------
A|------------------------57--------------------------
E|-0-00-5^5-0-5^5-0-5^5-57----------------------------

solo(b)
G|----------------------------------------------------
D|----------------------------------------------------
A|----------------------75----------------------------
E|-0-00-5^5-0-5^5-0-5^5---75--------------------------

how to play
verse x8
chorus x1
verse x6
chorus x1
solo(a)x3
solo(b)x1
solo(a)x2
solo(b)x1
solo(a)x3
and solo(b)x1
bridge-(play the verse x8)
chorus x2

Any questions/corrections/suggestions? Mail me.
faget@jedi.mailbr.com.br

Comments