Nirvana - Sappy Chords & Tabs

 

Sappy Chords & Tabs

Nirvana Chords & Tabs

Version: 4 Type: Tab 0 ratings
1 star 2 stars 3 stars 4 stars 5 stars
comments

Sappy Tab

NIRVANA - SAPPY
VERSE (X4)
e|---------------------------------------------------------------------------|
B|---------------------------------------------------------------------------|
G|--6-6-6-6-6---2-2-2----------------------2-2-2---4-4-4-4-------------------|
D|--6-6-6-6-6---2-2-2--4-4-4-4---6-6-6-6---2-2-2---4-4-4-4-------------------|
A|--4-4-4-4-4---0-0-0--4-4-4-4---6-6-6-6---0-0-0---2-2-2-2-------------------|
E|---------------------2-2-2-2---4-4-4-4-------------------------------------|

CHORUS                                      x3
e|---------------|----------------------------|------------------------------|
B|---------------|-.------------------------.-|------------------------------|
G|--6-6-6-6-6-6--|---2-2-2-2-2-2--------------|-2-2-2-2-2--------------------|
D|--6-6-6-6-6-6--|---2-2-2-2-2-2--4-4-4-4-4---|-2-2-2-2-2---R E S T----------|
A|--4-4-4-4-4-4--|-.-0-0-0-0-0-0--4-4-4-4-4-.-|-0-0-0-0-0--------------------|
E|---------------|----------------2-2-2-2-2---|------------------------------|

REPEAT VERSE (X4)
REPEAT CHORUS

SOLO
e|---------------------------------------------------------------------------|
B|---------------------------------------------------------------------------|
G|-------------------4-4-6-6-6-8-8-8-8-8b-8-6-8-8b-8b-8-6--------------------|
D|-------2-4/6--4-6----------------------------------------------------------|
A|--2/4---------------------------------------------------1-2-2-1------------|
E|-----------------------------------------------------------------4-2-------|
[ Tab from: http://www.guitartabs.cc/tabs/n/nirvana/sappy_tab_ver_4.html ]
e|---------------------------------------------------------------------------|
B|---------------------------------------------------------------------------|
G|---------------------------------------------------------------------------|
D|---------------------------------------------------------------------------|
A|----------------------------------------------------------11-13-13-14------|
E|--2-0-2-2b-0-0-0-0-2-2-2-4-4-4-6-6-7-7-9-9-11-11-11-11b-9------------------|

e|---------------------------------------------------------------------------|
B|---------------------------------------------------------------------------|
G|-------------------11-11------11b-11---------------------------------------|
D|-----11-11-14--14---------14----------14--11---13-14-14-14--13--13---------|
A|--14-----------------------------------------------------------------------|
E|---------------------------------------------------------------------------|

e|---------------------------------------------------------------------------|
B|---------------------------------------------------------------------------|
G|---------------------------------------------------------------------------|
D|--11-11-11-11-11-11-13-14-14-13-14-13-11-11--11/13--13-13\11-11\9----------|
A|---------------------------------------------------------------------------|
E|---------------------------------------------------------------------------|

e|------------------|
B|------------------|
G|------------------|
D|------------------|
A|--9\8-8\6-6\4-4---|
E|------------------|

REPEAT CHORUS
REPEAT VERSE 
REPEAT CHORUS
Comments