Nirvana - Sappy Chords & Tabs

 

Sappy Chords & Tabs

Nirvana Chords & Tabs

Version: 3 Type: Tab 0 ratings
1 star 2 stars 3 stars 4 stars 5 stars
comments

Sappy Tab

   
Hey,  I had a few peeps e-mail my boot this so i'll just put it up 4 all 2 c.
This is played on lead, i just din't have the space 2 get it all on if i put down 
all the strings.  Have fun and good luck!

e:--------------------------------------------------------
b:--------------------------------------------------------
g:-------------------4-h6-4-h6--b6-b4---6-s8-8-8-8-6-8-b9-
d:---------4-h6-4-h6------------------6-------------------
a:----4-h7------------------------------------------------
e:--------------------------------------------------------

e:--------------------------------------------------------
b:--------------------------------------------------------
g:9-9-9-8-6-----------------------------------------------
d:--------------------------------------------------------
a:--------------------------------------------------------
e:---------7-7-6-4-6-4-b2-2-0-2-b4-2-2-0-0-0-2-2-2-b4-4-4-
[ Tab from: http://www.guitartabs.cc/tabs/n/nirvana/sappy_tab_ver_3.html ]
e:--------------------------------------------------------
b:--------------------------------------------------------
g:------------------------------------9-11-9-13-s11-9------
d:-------------------6-8-8-8-9-9-9-11----------------11-11
a:--------4-4-4-6-7-4-------------------------------------
e:4-7-7-7-------------------------------------------------

e:--------------------------------------------------------
b:--------------------------------------------------------
b:--------------------------------------------------------
g:-11-13-14-14-14-14-13-11-11-11-11-11-11-13-s14-14-14-14-
d:--------------------------------------------------------
a:--------------------------------------------------------

e:--------------------------------------------------------
b:--------------------------------------------------------
b:--------------------------------------------------------
g:13-11-11-h13-13-13-11-11-9-9-8-8-6-6-4-4-p0-------------
d:--------------------------------------------6-----------
a:--------------------------------------------4-----------

e-mail me if there are any probs
p.s:This is my 1st tab, wot did ya tink ?
Comments