Nirvana - Sappy Chords & Tabs

 

Sappy Chords & Tabs

Nirvana Chords & Tabs

Version: 1 Type: Chords 0 ratings
1 star 2 stars 3 stars 4 stars 5 stars
comments

Sappy Chords

   
#----------------------------------PLEASE NOTE---------------------------------#
#This file is the author's own work and represents their interpretation of the #
#song. You may only use this file for private study, scholarship, or research. #
#------------------------------------------------------------------------------## 

Nirvana: Sappy
Tabber: Unknown

[ Tab from: http://www.guitartabs.cc/tabs/n/nirvana/sappy_crd.html ]
B5          Gmaj7       Esus2        F#sus4          
|-----------------|---------------------|-----------------|
|-----------------|---------------------|-----------------|
|-----4-----4-----|------4----------4---|-----------------|
|---4-----4-----4-|----4----------4-----|-----4-----4-----|
|-2-----2-----2---|---------------------|---4-----4-----4-|
|-----------------|-3------3---0------0-|-2-----2-----2---|

    G5       A5             B5
|-------------------|-----------------|
|-------------------|-----------------|
|------0-------2----|-----4-----4-----|
|----0-------2------|---4-----4-----4-|
|----------0------0-|-2------2-----2--|
|-3------3----------|-----------------|


*Chorus*:


        Gmaj7           Esus2
|-----------------|-----------------|
|-----------------|-----------------|
|-----4-----4-----|-----4-----4-----|
|---4-----4-----4-|---4-----4-----4-|
|-----------------|-----------------|
|-3-----3-----3---|-0-----0-----0---|after playing 4 times end with this:

        F#sus4
|-----------------|
|-----------------|
|-----------------|
|-4---------------|
|-4---------------|
|-2---------------|


stellazzio@hotmail.com
Comments