Nirvana - Sappy Chords & Tabs

 

Sappy Chords & Tabs

Nirvana Chords & Tabs

Version: 3 Type: Bass Tab 0 ratings
1 star 2 stars 3 stars 4 stars 5 stars
comments

Sappy Bass Tab

   
----------------------------------------------------------------------------
			     SAPPY - Nirvana
----------------------------------------------------------------------------
Tabbed by:dorris
Email:cleandirt2001@hotmail.com

Comments:this is another version of mine and plus, i was on another user, i hope it works

here we go....

G|-----------------------------------------------------------|
D|-----------------------------------------------------------|
A|-5-5-5-5--1-1--1--------0-0-0-0-0--1-1-1-------------------|  (3x)
E|-----------------3-3-3--------------------1-1--------------|
[ Tab from: http://www.guitartabs.cc/tabs/n/nirvana/sappy_btab_ver_3.html ]
G|-----------------------------------------------------------|
D|-----------------------------------------------------------|
A|-5-5-5-5--1-1--1--------0-0-0-0-0--1-1-1-------5-5-5-5-5---|  (1x)
E|-----------------3-3-3-------------------------------------|

Chorus:

G|----------------------------|          G|------------------|
D|----------------------------|          D|------------------|
A|-1--1-1-1-1-----------------|   (3x)   A|-1--1-1-1-1--0----|  (1x)
E|-------------3--3-3-3-3-----|          E|------------------|


| /  slide up
| \  slide down
| h  hammer-on
| p  pull-off
| ~  vibrato
| +  harmonic
| x  Mute note
============================================================================
Comments