Nirvana - Rape Me Chords & Tabs

 

Rape Me Chords & Tabs

Nirvana Chords & Tabs

Version: 9 Type: Tab 0 ratings
1 star 2 stars 3 stars 4 stars 5 stars
comments

Rape Me Tab

-------------------------------------------------------------------------------
			     Rape Me- Nirvana
-------------------------------------------------------------------------------

By:MeNaCe
email: Menace210@aol.com

Intro                                                                     2x
e|---------------------------------------------------------------------------|
B|---------------------------------------------------------------------------|
G|--2-2-X-X-X-5-5-5----------------------------------------------------------|
D|--2-2-X-X-X-5-5-5-2-2-X-X-X-5-5-5------------------------------------------|
A|--0-0-X-X-X-3-3-3-2-2-X-X-X-5-5-5------------------------------------------|
E|------------------0-0-X-X-X-3-3-3------------------------------------------|
[ Tab from: http://www.guitartabs.cc/tabs/n/nirvana/rape_me_tab_ver_9.html ]
e|---------------------------------------------------------------------------
B|---------------------------------------------------------------------------
G|---2-----5-----2-----2-5-5-----2-----2-2-2-5-5-5-2-2--2-2-2-2---2-5-5-5-2-2
D|---2-----5-----2-----2-5-5-----2-----2-2-2-5-5-5-2-2--2-2-2-2---2-5-5-5-2-2
A|-0---0-3---3-2---2-3---3---3-2---2-3-0-0---3-3---0-0--0-0-0-0-0---3-3-3-0-0
E|---------------------------------------------------------------------------
   "Rape me              Rape me my friend
e|---------------------------------------------------------------------------|
B|---------------------------------------------------------------------------|
G|--2-2-5-5-5-5-5-5----------------------------------------------------------|
D|--2-2-5-5-5-5-5-5-2-2-5-5-5-5-5-5------------------------------------------|
A|--0-0-3-3-3-3-3-3-2-2-5-5-5-5-5-5------------------------------------------|
E|------------------0-0-3-3-3-3-3-3------------------------------------------|
   Im not the only one
e|---------------------------------------------------------------------------|
B|---------------------------------------------------------------------------|
G|--2-2-X-X-X-5-5-5----------------------------------------------------------|
D|--2-2-X-X-X-5-5-5-2-2-X-X-X-5-5-5------------------------------------------|
A|--0-0-X-X-X-3-3-3-2-2-X-X-X-5-5-5------------------------------------------|
E|------------------0-0-X-X-X-3-3-3------------------------------------------|
   Rape me
e|---------------------------------------------------------------------------|
B|---------------------------------------------------------------------------|
G|--4-4-4-4-4-4-4-2-2-2-2-2-2-2----------------------------------------------|
D|--4-4-4-4-4-4-4-2-2-2-2-2-2-2----------------------------------------------|
A|--2-2-2-2-2-2-2-0-0-0-0-0-0-0----------------------------------------------|
E|---------------------------------------------------------------------------|
   My favorite inside source
e|---------------------------------------------------------------------------|
B|---------------------------------------------------------------------------|
G|--2-2-X-X-X-5-5-5----------------------------------------------------------|
D|--2-2-X-X-X-5-5-5-2-2-X-X-X-5-5-5---5/18-----------------------------------|
A|--0-0-X-X-X-3-3-3-2-2-X-X-X-5-5-5---5/18-----------------------------------|
E|------------------0-0-X-X-X-3-3-3---3/16-----------------------------------|
    Play this 3 times then on the third time slide n bend 1/2

enjoy 
  bry-
===============================================================================
Comments