Nirvana - Rape Me Chords & Tabs

 

Rape Me Chords & Tabs

Nirvana Chords & Tabs

Version: 5 Type: Tab 3 ratings
1 star 2 stars 3 stars 4 stars 5 stars
comments

Rape Me Tab

Band: Nirvana
Song: Rape Me
tabbed by paul-online@gmx.net

[ Tab from: http://www.guitartabs.cc/tabs/n/nirvana/rape_me_tab_ver_5.html ]
Intro And 1st Verse
-------------------
Clean Guitar/No Drums
 
    |-----------------|-----------------|-----------------|-----------------|
    |-----------------|-----------------|-----------------|-----------------|
    |-----------------|-----------------|-----------------|-----------------|
    |------7---7------|-X-X-X-X-10-10---|------2---2------|-X-X-X-X-5-5-----|
    |------7---7------|-X-X-X-X-10-10---|------2---2------|-X-X-X-X-5-5-----|
    |------5---5------|-8-8-8-8-8--8----|------0---0------|-3-3-3-3-3-3-----|
 
 
 
    |-----------------|-----------------|-----------------|-----------------|
    |-----------------|-----------------|-----------------|-----------------|
    |-----------------|-----------------|-----------------|-----------------|
    |------7---7------|-X-X-X-X-10-10---|------2---2------|-X-X-X-X-5-5-----|
    |------7---7------|-X-X-X-X-10-10---|------2---2------|-X-X-X-X-5-5-----|
    |------5---5------|-8-8-8-8-8--8----|------0---0------|-3-3-3-3-3-3-----|
 
 
 
    |-----------------|-----------------|-----------------|-----------------|
    |--------2--------|-----------------|-----------------|-----------------|
    |--------2--------|---------0-------|---------2-------|---------5-------|
    |-----------------|-------2---2-----|---------2-------|---------5-------|
    |-----0-----------|---0-3-----------|-----------------|------5-----5----|
    |-----------------|-----------------|------0----------|-0-3-----------0-|
 
   
 
    |-----------------|-----------------|-----------------|-----------------|
    |--------2--------|-----------------|-----------------|-----------------|
    |--------2--------|---------0-------|---------2-------|---------5-------|
    |-----------------|-------2---2-----|---------2-------|---------5-------|
    |-----0-----------|---0-3-----------|-----------------|------5-----5----|
    |-----------------|-----------------|------0----------|-0-3-----------0-|
 
      
 
    |-----------------|-----------------|-----------------|-----------------|
    |--------2--------|-----------------|-----------------|-----------------|
    |--------2--------|---------0-------|---------2-------|---------5-------|
    |-----------------|-------2---2-----|---------2-------|---------5-------|
    |-----0-----------|---0-3-----------|-----------------|------5-----5----|
    |-----------------|-----------------|------0----------|-0-3-----------0-|
 
   
 
    |-----------------|-----------------|-----------------|-----------------|
    |--------2--------|-----------------|-----------------|-----------------|
    |--------2--------|---------0-------|---------2-------|---------5-------|
    |-----------------|-------2---2-----|---------2-------|---------5-------|
    |-----0-----------|---0-3-----------|-----------------|------5-----5----|
    |-----------------|-----------------|------0----------|-0-3-----------0-|
 
    ...
 
1st Chorus
----------
Heavy Distorted Guitar w/Drums - Do 4 Times
 
    |-----------------|-----------------|-----------------|-----------------|
    |-----------------|-----------------|-----------------|-----------------|
    |-----------------|-----------------|-----------------|-----------------|
    |------7---7------|-X-X-X-X-10-10---|------2---2------|-X-X-X-X-5-5-----|
    |------7---7------|-X-X-X-X-10-10---|------2---2------|-X-X-X-X-5-5-----|
    |------5---5------|-8-8-8-8-8--8----|------0---0------|-3-3-3-3-3-3-----|
 
    ..
 
2nd Verse
---------
Clean Guitar w/Drums - Do 4 Times With Lyrics (Same Beat As In 1st Verse)
 
    |-----------------|-----------------|-----------------|-----------------|
    |-----------------|-----------------|-----------------|-----------------|
    |-----------------|-----------------|-----------------|-----------------|
    |------7---7------|-X-X-X-X-10-10---|------2---2------|-X-X-X-X-5-5-----|
    |------7---7------|-X-X-X-X-10-10---|------2---2------|-X-X-X-X-5-5-----|
    |------5---5------|-8-8-8-8-8--8----|------0---0------|-3-3-3-3-3-3-----|
 
 
2nd Chorus
----------
 
1 - Do 1st Chorus
2 - Do This After 1st Chorus:
 
Heavy Distorted Guitar w/Drums (Drums Change To Fit This Riff)
 
    |-----------------|-----------------|-----------------|-----------------|
    |-----------------|-----------------|-----------------|-----------------|
    |-----------------|-----------------|-----------------|-----------------|
    |---6-6-6-6-6-6---|--2-2-2----------|---6-6-6-6-6-6---|--2-2-2----------|
    |---4-4-4-4-4-4---|--0-0-0--3-2-1-0-|---4-4-4-4-4-4---|--0-0-0--3-2-1-0-|
    |-----------------|-----------------|-----------------|-----------------|
 
    .
 
    |-----------------|-----------------|-----------------|-----------------|
    |-----------------|-----------------|-----------------|-----------------|
    |-----------------|-----------------|-----------------|-----------------|
    |---6-6-6-6-6-6---|--2-2-2----------|---6-6-6-6-6-6---|--2-2-2----------|
    |---4-4-4-4-4-4---|--0-0-0--3-2-1-0-|---4-4-4-4-4-4---|--0-0-0--3-2-1-0-|
    |-----------------|-----------------|-----------------|-----------------|
 
   
 
    |-----------------|-----------------|-----0-----------|-----------------|
    |-----------------|-----------------|-----0-----------|-----------------|
    |-----------------|-----------------|-----X-----------|-----------------|
    |-----------------|-----------------|-----2-----------|-----------------|
    |-3-3-3-3-3-3-3-3-|-5-5-5-5-5-5-5-5-|-----2-----------|-----------------|
    |-1-1-1-1-1-1-1-1-|-3-3-3-3-3-3-3-3-|-----0-----------|-----------------|
 
                                          (Open E Rings Out For An 8 Count)
 
3rd Verse
---------
Clean Guitar/ No Drums - Do 4 Times With Lyrics (Same Beat As In 1&2 Verses)
 
    |-----------------|-----------------|-----------------|-----------------|
    |-----------------|-----------------|-----------------|-----------------|
    |-----------------|-----------------|-----------------|-----------------|
    |------7---7------|-X-X-X-X-10-10---|------2---2------|-X-X-X-X-5-5-----|
    |------7---7------|-X-X-X-X-10-10---|------2---2------|-X-X-X-X-5-5-----|
    |------5---5------|-8-8-8-8-8--8----|------0---0------|-3-3-3-3-3-3-----|
 
Final Chorus
------------
Heavy Distorted Guitar w/Drums
 
4 Times:
--------
 
    |-----------------|-----------------|-----------------|-----------------|
    |-----------------|-----------------|-----------------|-----------------|
    |-----------------|-----------------|-----------------|-----------------|
    |------7---7------|-X-X-X-X-10-10---|------2---2------|-X-X-X-X-5-5-----|
    |------7---7------|-X-X-X-X-10-10---|------2---2------|-X-X-X-X-5-5-----|
    |------5---5------|-8-8-8-8-8--8----|------0---0------|-3-3-3-3-3-3-----|
 
 .
 
4 Times:
--------
 
    |-----------------|-----------------|-----------------|-----------------|
    |-----------------|-----------------|-----------------|-----------------|
    |-----------------|-----------------|-----------------|-----------------|
    |------7---7------|-X-X-X-X-10-10---|------2---2------|-X-X-X-X-5-5-----|
    |------7---7------|-X-X-X-X-10-10---|------2---2------|-X-X-X-X-5-5-----|
    |------5---5------|-8-8-8-8-8--8----|------0---0------|-3-3-3-3-3-3-----|
 
 
 
 
Comments