Nirvana - Rape Me Chords & Tabs

 

Rape Me Chords & Tabs

Nirvana Chords & Tabs

Version: 3 Type: Tab 0 ratings
1 star 2 stars 3 stars 4 stars 5 stars
comments

Rape Me Tab

Band: Nirvana
Song: Rape Me

Tabbed by Paul Skinner
paulskinner007@hotmail.com   

Drop D Tuning (DADGBE)







    |-----------------|-----------------|-----------------|-----------------|
    |-----------------|-----------------|-----------------|-----------------|
    |-----------------|-----------------|-----------------|-----------------|
    |------6---6------|-X-X-X-X-9--9----|------1---1------|-X-X-X-X-4-4-----|
    |------6---6------|-X-X-X-X-9--9----|------1---1------|-X-X-X-X-4-4-----|
    |------6---6------|-9-9-9-9-9--9----|------1---1------|-4-4-4-4-4-4-----|
 
 
 
    |-----------------|-----------------|-----------------|-----------------|
    |-----------------|-----------------|-----------------|-----------------|
    |-----------------|-----------------|-----------------|-----------------|
    |------6---6------|-X-X-X-X-9--9----|------1---1------|-X-X-X-X-4-4-----|
    |------6---6------|-X-X-X-X-9--9----|------1---1------|-X-X-X-X-4-4-----|
    |------6---6------|-9-9-9-9-9--9----|------1---1------|-4-4-4-4-4-4-----|
 
 
 
    |-----------------|-----------------|-----------------|-----------------|
    |-----------------|-----------------|-----------------|-----------------|
    |-----------------|-----------------|-----------------|-----------------|
    |--------9--------|-------9-9-------|---------4-------|-------4-4-------|
    |--------9--------|---9-9---9-------|---------4-------|---4-4---4-------|
    |-----9--9--------|---------9-------|------4--4-------|---------4-------|
 
      Rape Me...
 
    |-----------------|-----------------|-----------------|-----------------|
    |-----------------|-----------------|-----------------|-----------------|
    |-----------------|-----------------|-----------------|-----------------|
    |--------9--------|-------9-9-------|---------4-------|-------4-4-------|
    |--------9--------|---9-9---9-------|---------4-------|---4-4---4-------|
    |-----9--9--------|---------9-------|------4--4-------|---------4-------|
 
   
 
    |-----------------|-----------------|-----------------|-----------------|
    |-----------------|-----------------|-----------------|-----------------|
    |-----------------|-----------------|-----------------|-----------------|
    |--------9--------|-------9-9-------|---------4-------|-------4-4-------|
    |--------9--------|---9-9---9-------|---------4-------|---4-4---4-------|
    |-----9--9--------|---------9-------|------4--4-------|---------4-------|
 
      Rape Me...
 
    |-----------------|-----------------|-----------------|-----------------|
    |-----------------|-----------------|-----------------|-----------------|
    |-----------------|-----------------|-----------------|-----------------|
    |--------9--------|-------9-9-------|---------4-------|---6-6-6-6-------|
    |--------9--------|---9-9---9-------|---------4-------|---6-6-6-6-------|
    |-----9--9--------|---------9-------|------4--4-------|---6-6-6-6-------|
 
      
 
(Rhythm is incorrect for last to bars!)

[ Tab from: http://www.guitartabs.cc/tabs/n/nirvana/rape_me_tab_ver_3.html ]
1st Chorus
----------
Heavy Distorted Guitar w/Drums - Do 4 Times
 
    |-----------------|-----------------|-----------------|-----------------|
    |-----------------|-----------------|-----------------|-----------------|
    |-----------------|-----------------|-----------------|-----------------|
    |------6---6------|-X-X-X-X-9--9----|------1---1------|-X-X-X-X-4-4-----|
    |------6---6------|-X-X-X-X-9--9----|------1---1------|-X-X-X-X-4-4-----|
    |------6---6------|-9-9-9-9-9--9----|------1---1------|-4-4-4-4-4-4-----|
 
      I'm Not The ...
 
2nd Verse
---------
Clean Guitar w/Drums - Do 4 Times With Lyrics (Same Beat As In 1st Verse)
 
    |-----------------|-----------------|-----------------|-----------------|
    |-----------------|-----------------|-----------------|-----------------|
    |-----------------|-----------------|-----------------|-----------------|
    |------6---6------|-X-X-X-X-9--9----|------1---1------|-X-X-X-X-4-4-----|
    |------6---6------|-X-X-X-X-9--9----|------1---1------|-X-X-X-X-4-4-----|
    |------6---6------|-9-9-9-9-9--9----|------1---1------|-4-4-4-4-4-4-----|
 
 
2nd Chorus
----------
 
1 - Do 1st Chorus
2 - Do This After 1st Chorus:
 
Heavy Distorted Guitar w/Drums (Drums Change To Fit This Riff)
 
    |-----------------|-----------------|-----------------|-----------------|
    |-----------------|-----------------|-----------------|-----------------|
    |-----------------|-----------------|-----------------|-----------------|
    |---5-5-5-5-5-5---|--6-6-6----------|---5-5-5-5-5-5---|--6-6-6----------|
    |---3-3-3-3-3-3---|--6-6-6----------|---3-3-3-3-3-3---|--6-6-6----------|
    |-----------------|---------4-3-2-1-|-----------------|---------4-3-2-1-|
 
  
 
    |-----------------|-----------------|-----------------|-----------------|
    |-----------------|-----------------|-----------------|-----------------|
    |-----------------|-----------------|-----------------|-----------------|
    |---5-5-5-5-5-5---|--6-6-6----------|---5-5-5-5-5-5---|--6-6-6----------|
    |---3-3-3-3-3-3---|--6-6-6----------|---3-3-3-3-3-3---|--6-6-6----------|
    |-----------------|---------4-3-2-1-|-----------------|---------4-3-2-1-|
 
 
 
    |-----------------|-----------------|-----------------|-----------------|
    |-----------------|-----------------|-----------------|-----------------|
    |-----------------|-----------------|-----------------|-----------------|
    |-----------------|-----------------|-----1-----------|-----------------|
    |-2-2-2-2-2-2-2-2-|-4-4-4-4-4-4-4-4-|-----1-----------|-----------------|
    |-2-2-2-2-2-2-2-2-|-4-4-4-4-4-4-4-4-|-----1-----------|-----------------|
 
                                          (Rings Out For An 8 Count)
 
3rd Verse
---------
Clean Guitar/ No Drums - Do 4 Times With Lyrics (Same Beat As In 1&2 Verses)
 
    |-----------------|-----------------|-----------------|-----------------|
    |-----------------|-----------------|-----------------|-----------------|
    |-----------------|-----------------|-----------------|-----------------|
    |------6---6------|-X-X-X-X-9--9----|------1---1------|-X-X-X-X-4-4-----|
    |------6---6------|-X-X-X-X-9--9----|------1---1------|-X-X-X-X-4-4-----|
    |------6---6------|-9-9-9-9-9--9----|------1---1------|-4-4-4-4-4-4-----|


Final Chorus
------------
Heavy Distorted Guitar w/Drums
 
4 Times:
--------
 
    |-----------------|-----------------|-----------------|-----------------|
    |-----------------|-----------------|-----------------|-----------------|
    |-----------------|-----------------|-----------------|-----------------|
    |------6---6------|-X-X-X-X-9--9----|------1---1------|-X-X-X-X-4-4-----|
    |------6---6------|-X-X-X-X-9--9----|------1---1------|-X-X-X-X-4-4-----|
    |------6---6------|-9-9-9-9-9--9----|------1---1------|-4-4-4-4-4-4-----|

 
4 Times:
--------
 
    |-----------------|-----------------|-----------------|-----------------|
    |-----------------|-----------------|-----------------|-----------------|
    |-----------------|-----------------|-----------------|-----------------|
    |------6---6------|-X-X-X-X-9--9----|------1---1------|-X-X-X-X-4-4-----|
    |------6---6------|-X-X-X-X-9--9----|------1---1------|-X-X-X-X-4-4-----|
    |------6---6------|-9-9-9-9-9--9----|------1---1------|-4-4-4-4-4-4-----|
     
 Rape Me!...                
Comments