Nirvana - Rape Me Chords & Tabs

 

Rape Me Chords & Tabs

Nirvana Chords & Tabs

Version: 2 Type: Tab 11 ratings
1 star 2 stars 3 stars 4 stars 5 stars
comments

Rape Me Tab

   
this is rape me

its awesome


INTRO (CLEAN),VERSE 2 AND 3 (CLEAN), AND THE CHORUS (WITH DISTORTION)

     A         C          E           G 
e:--------------------------------------------------]
B:--------------------------------------------------]
G:-------------5-5-X-X-X--1-1-1-X-X-X---------------]
D:--7-7-X-X-X--5-5-X-X-X--2-2-2-X-X-X-5-5-5---------]
A:--7-7-X-X-X--3-3-X-X-X--2-2-2-X-X-X-5-5-5---------]
E:--5-5-X-X-X-------------0-0-0-X-X-X-3-3-3---------]


VERSE 1 (ALSO CLEAN)

     A      C        E       G
e:---------------------------------------------------]
B:----------------5----------------------------------]
G:--------------5-----------------5------------------]
D:----7-------5-------2---------5--------------------]
A:----7-----3---------2-------5----------------------]
E:--5---------------0-------3------------------------]

THEN YOU HIT THE DISTORTION AND PLAY THE INTRO AS THE CHORUS!!!!

I WISH THIS SONG HAD A GUITAR SOLO...
[ Tab from: http://www.guitartabs.cc/tabs/n/nirvana/rape_me_tab_ver_2.html ]
BRIDGE (WITH DISTORTION)


e:----------------------------------------------------]
B:----------------------------------------------------]
G:--6-6-6---------6-6-6-------------------------------]
D:--6-6-6--6-6-6--6-6-6--6-6-6--3-3-3-3-3-3-3---------]
A:--4-4-4--6-6-6--4-4-4--6-6-6--3-3-3-3-3-3-3---------]
E:---------4-4-4---------4-4-4--1-1-1-1-1-1-1---------]

STRUCTURE

INTRO                                              2X 
VERSE 1                                            4X
CHORUS                                             4X
VERSE                                              4X
CHORUS                                             4X
VERSE                                              4X
BRIDGE                                             1X
VERSE(REPEAT VERSE 1 LYRICS WITH THE INTRO RIFF)
THEN REPEAT THE RIFF UNTIL YOUR THROAT HURTS FROM SCREAMING RAPE ME!!!

THANK YOU AND I HOPE THIS HELPS!!!
IF YOU HAVE THE LYRICS SEND THEM TO ME AT BJ_MATSON503@YAHOO.COM



                                   -DANIEL
                                           (IM AWESOME)


Comments