Nirvana - Rape Me Chords & Tabs

 

Rape Me Chords & Tabs

Nirvana Chords & Tabs

Version: 14 Type: Tab 0 ratings
1 star 2 stars 3 stars 4 stars 5 stars
comments

Rape Me Tab

Nirvana - Rape Me
Pimpsk8er72@aol.com


e------------------------------------------------------|
b------------------------------------------------------|
g------------------------------------------------------|     X2
d-------------5-5-5-5-5-5------------------------------|
a-7-7--X-X-X--3-3-3-3-3-3--0-0---0-0-0---5-5-5-5-5-5---|
E-5-5--X-X-X---------------2-2---2-2-2---3-3-3-3-3-3---|

e-------------------------------------------|
b----2---------0------2---------------------|
g----2---------0------2-------5-------------|
d-2---------0-----------------5-------------|
a-0----0-3-------3----------5---------------|
E------------------0----0-3----0------------|
  Rape me...


e-------------------------------------------|
b----2---------0------2---------------------|
g----2---------0------2-------5-------------|
d-2---------0-----------------5-------------|
a-0----0-3-------3----------5---------------|
E------------------0----0-3----0------------|
  Rape me...my friend


e-------------------------------------------|
b----2---------0------2---------------------|
g----2---------0------2-------5-------------|
d-2---------0-----------------5-------------|
a-0----0-3-------3----------5---------------|
E------------------0----0-3----0------------|
  Rape me...


e-------------------------------------------|
b----2---------0------2---------------------|
g----2---------0------2-------5-------------|
d-2---------0-----------------5-------------|
a-0----0-3-------3----------5---------------|
E------------------0----0-3----0------------|
  Rape me...again


e------------------------------------------------------|
b------------------------------------------------------|
g------------------------------------------------------|    (With Distortion)
d-------------5-5-5-5-5-5------------------------------|
a-7-7--X-X-X--3-3-3-3-3-3--0-0---0-0-0---5-5-5-5-5-5---|
E-5-5--X-X-X---------------2-2---2-2-2---3-3-3-3-3-3---|
  I'm not the only one...I,_____________________


e------------------------------------------------------|
b------------------------------------------------------|
g------------------------------------------------------|    (With Distortion)
d-------------5-5-5-5-5-5------------------------------|
a-7-7--X-X-X--3-3-3-3-3-3--0-0---0-0-0---5-5-5-5-5-5---|
E-5-5--X-X-X---------------2-2---2-2-2---3-3-3-3-3-3---|
  I'm not the only one...I,_____________________


e------------------------------------------------------|
b------------------------------------------------------|
g------------------------------------------------------|    (With Distortion)
d-------------5-5-5-5-5-5------------------------------|
a-7-7--X-X-X--3-3-3-3-3-3--0-0---0-0-0---5-5-5-5-5-5---|
E-5-5--X-X-X---------------2-2---2-2-2---3-3-3-3-3-3---|
  I'm not the only one...I,_____________________


e------------------------------------------------------|
b------------------------------------------------------|
g------------------------------------------------------|    (With Distortion)
d-------------5-5-5-5-5-5------------------------------|
a-7-7--X-X-X--3-3-3-3-3-3--0-0---0-0-0---5-5-5-5-5-5---|
E-5-5--X-X-X---------------2-2---2-2-2---3-3-3-3-3-3---|
  I'm not the only one...


e------------------------------------------------------|
b------------------------------------------------------|
g------------------------------------------------------|
d-------------5-5-5-5-5-5------------------------------|
a-7-7--X-X-X--3-3-3-3-3-3--0-0---0-0-0---5-5-5-5-5-5---|
E-5-5--X-X-X---------------2-2---2-2-2---3-3-3-3-3-3---|
  Hate me...


e------------------------------------------------------|
b------------------------------------------------------|
g------------------------------------------------------|
d-------------5-5-5-5-5-5------------------------------|
a-7-7--X-X-X--3-3-3-3-3-3--0-0---0-0-0---5-5-5-5-5-5---|
E-5-5--X-X-X---------------2-2---2-2-2---3-3-3-3-3-3---|
  Do it and do it again...


e------------------------------------------------------|
b------------------------------------------------------|
g------------------------------------------------------|
d-------------5-5-5-5-5-5------------------------------|
a-7-7--X-X-X--3-3-3-3-3-3--0-0---0-0-0---5-5-5-5-5-5---|
E-5-5--X-X-X---------------2-2---2-2-2---3-3-3-3-3-3---|
  Rape me...


e------------------------------------------------------|
b------------------------------------------------------|
g------------------------------------------------------|
d-------------5-5-5-5-5-5------------------------------|
a-7-7--X-X-X--3-3-3-3-3-3--0-0---0-0-0---5-5-5-5-5-5---|
E-5-5--X-X-X---------------2-2---2-2-2---3-3-3-3-3-3---|
  Rame me...again


e------------------------------------------------------|
b------------------------------------------------------|
g------------------------------------------------------|    (With Distortion)
d-------------5-5-5-5-5-5------------------------------|
a-7-7--X-X-X--3-3-3-3-3-3--0-0---0-0-0---5-5-5-5-5-5---|
E-5-5--X-X-X---------------2-2---2-2-2---3-3-3-3-3-3---|
  I'm not the only one...I,_____________________


e------------------------------------------------------|
b------------------------------------------------------|
g------------------------------------------------------|    (With Distortion)
d-------------5-5-5-5-5-5------------------------------|
a-7-7--X-X-X--3-3-3-3-3-3--0-0---0-0-0---5-5-5-5-5-5---|
E-5-5--X-X-X---------------2-2---2-2-2---3-3-3-3-3-3---|
  I'm not the only one...I,_____________________

[ Tab from: http://www.guitartabs.cc/tabs/n/nirvana/rape_me_tab_ver_14.html ]
e------------------------------------------------------|
b------------------------------------------------------|
g------------------------------------------------------|    (With Distortion)
d-------------5-5-5-5-5-5------------------------------|
a-7-7--X-X-X--3-3-3-3-3-3--0-0---0-0-0---5-5-5-5-5-5---|
E-5-5--X-X-X---------------2-2---2-2-2---3-3-3-3-3-3---|
  I'm not the only one...I,_____________________


e------------------------------------------------------|
b------------------------------------------------------|
g------------------------------------------------------|    (With Distortion)
d-------------5-5-5-5-5-5------------------------------|
a-7-7--X-X-X--3-3-3-3-3-3--0-0---0-0-0---5-5-5-5-5-5---|
E-5-5--X-X-X---------------2-2---2-2-2---3-3-3-3-3-3---|
  I'm not the only one...


e-----------------------------------------------|
b-----------------------------------------------|
g------------------------6----------------------|
d--2-2------------6-6-6--6--6-6-6---------------|
a--0-0------------4-4-4-----4-4-4---------------|
E------0-3-2-1-0--------------------------------|
  My favorite inside source...


e-----------------------------------------------|
b-----------------------------------------------|
g------------------------6----------------------|
d--2-2------------6-6-6--6--6-6-6---------------|
a--0-0------------4-4-4-----4-4-4---------------|
E------0-3-2-1-0--------------------------------|
  I'll Kiss your open sores...


e-----------------------------------------------|
b-----------------------------------------------|
g------------------------6----------------------|
d--2-2------------6-6-6--6--6-6-6---------------|
a--0-0------------4-4-4-----4-4-4---------------|
E------0-3-2-1-0--------------------------------|
  Appreciate your concern...


e-----------------------------------------------|
b-----------------------------------------------|
g------------------------6----------------------|
d--2-2------------6-6-6--6--6-6-6---------------|
a--0-0------------4-4-4-----4-4-4---------------|
E------0-3-2-1-0--------------------------------|
  You're gonna sink and burn...


d--------------------------------------0-------------|
a-3-3-3-3-3-3-3-3-/-5-5-5-5-5-5-5-5-/--0-------------|
E-1-1-1-1-1-1-1-1-/-3-3-3-3-3-3-3-3-/--2-------------|


e------------------------------------------------------|
b------------------------------------------------------|
g------------------------------------------------------|
d-------------5-5-5-5-5-5------------------------------|
a-7-7--X-X-X--3-3-3-3-3-3--0-0---0-0-0---5-5-5-5-5-5---|
E-5-5--X-X-X---------------2-2---2-2-2---3-3-3-3-3-3---|
  Rape me...


e------------------------------------------------------|
b------------------------------------------------------|
g------------------------------------------------------|
d-------------5-5-5-5-5-5------------------------------|
a-7-7--X-X-X--3-3-3-3-3-3--0-0---0-0-0---5-5-5-5-5-5---|
E-5-5--X-X-X---------------2-2---2-2-2---3-3-3-3-3-3---|
  Rape me...my friend


e------------------------------------------------------|
b------------------------------------------------------|
g------------------------------------------------------|
d-------------5-5-5-5-5-5------------------------------|
a-7-7--X-X-X--3-3-3-3-3-3--0-0---0-0-0---5-5-5-5-5-5---|
E-5-5--X-X-X---------------2-2---2-2-2---3-3-3-3-3-3---|
  Rape me...


e------------------------------------------------------|
b------------------------------------------------------|
g------------------------------------------------------|
d-------------5-5-5-5-5-5------------------------------|
a-7-7--X-X-X--3-3-3-3-3-3--0-0---0-0-0---5-5-5-5-5-5---|
E-5-5--X-X-X---------------2-2---2-2-2---3-3-3-3-3-3---|
  Rame me...again


e------------------------------------------------------|
b------------------------------------------------------|
g------------------------------------------------------|    (With Distortion)
d-------------5-5-5-5-5-5------------------------------|
a-7-7--X-X-X--3-3-3-3-3-3--0-0---0-0-0---5-5-5-5-5-5---|
E-5-5--X-X-X---------------2-2---2-2-2---3-3-3-3-3-3---|
  I'm not the only one...I,_____________________


e------------------------------------------------------|
b------------------------------------------------------|
g------------------------------------------------------|    (With Distortion)
d-------------5-5-5-5-5-5------------------------------|
a-7-7--X-X-X--3-3-3-3-3-3--0-0---0-0-0---5-5-5-5-5-5---|
E-5-5--X-X-X---------------2-2---2-2-2---3-3-3-3-3-3---|
  I'm not the only one...I,_____________________


e------------------------------------------------------|
b------------------------------------------------------|
g------------------------------------------------------|    (With Distortion)
d-------------5-5-5-5-5-5------------------------------|
a-7-7--X-X-X--3-3-3-3-3-3--0-0---0-0-0---5-5-5-5-5-5---|
E-5-5--X-X-X---------------2-2---2-2-2---3-3-3-3-3-3---|
  I'm not the only one...I,_____________________


e------------------------------------------------------|
b------------------------------------------------------|
g------------------------------------------------------|    (With Distortion)
d-------------5-5-5-5-5-5------------------------------|
a-7-7--X-X-X--3-3-3-3-3-3--0-0---0-0-0---5-5-5-5-5-5---|
E-5-5--X-X-X---------------2-2---2-2-2---3-3-3-3-3-3---|
  I'm not the only one...


e------------------------------------------------------|
b------------------------------------------------------|
g------------------------------------------------------|
d-------------5-5-5-5-5-5------------------------------|
a-7-7--X-X-X--3-3-3-3-3-3--0-0---0-0-0---5-5-5-5-5-5---|
E-5-5--X-X-X---------------2-2---2-2-2---3-3-3-3-3-3---|
  Rape me,        Rape me,           }
                                     }X17
          Rape me,        Rape me,   }


FEEDBACK
Comments