Nirvana - Rape Me Chords & Tabs

 

Rape Me Chords & Tabs

Nirvana Chords & Tabs

Version: 12 Type: Tab 0 ratings
1 star 2 stars 3 stars 4 stars 5 stars
comments

Rape Me Tab

   
-----------------------------------------------------------------------------
			     Rape me - Nirvana
-----------------------------------------------------------------------------
Tabbed by: Ignacio "Coco" Vespoli
Email: cocofuhgawz@hotmail.com

Tuning: Normal


INTRO 
e|-----------|---------------|-------------|-------|---------------|
B|-----------|---------------|-------------|-------|---------------|
G|-----------|---------------|--5-5-x-x-x--|-------|---------------|
D|-----------|--7-7-x-x-x-x--|--5-5-x-x-x--|--2-2--|--x-x-x-x-5-5--|
A|--x-x-x-x--|--7-7-x-x-x-x--|--3-3-3-3-3--|--2-2--|--x-x-x-x-5-5--|
E|--x-x-x-x--|--5-5-5-5-5-5--|-------------|--0-0--|--3-3-3-3-3-3--|

e|---------------|-------------|-------|---------------|
B|---------------|-------------|-------|---------------|
G|---------------|--5-5-x-x-x--|-------|---------------|
D|--7-7-x-x-x-x--|--5-5-x-x-x--|--2-2--|--x-x-x-x-5-5--|
A|--7-7-x-x-x-x--|--3-3-3-3-3--|--2-2--|--x-x-x-x-5-5--|
E|--5-5-5-5-5-5--|-------------|--0-0--|--3-3-3-3-3-3--|



VERSE

"Rape meee...."
e|--------|---------|---------|----------|
B|--------|---------|---------|----------|
G|--------|-------5-|-------2-|----------|
D|------7-|-----5-5-|-----2-2-|-------5--|
A|----7-7-|-0-3-----|---2---2-|-----5-5--|
E|--5-----|---------|-0-------|-0-3------|


"Rape me my friend...."
e|--------|---------|---------|----------|
B|--------|---------|---------|----------|
G|--------|-------5-|-------2-|----------|
D|------7-|-----5-5-|-----2-2-|-------5--|
A|----7-7-|-0-3-----|---2---2-|-----5-5--|
E|--5-----|---------|-0-------|-0-3------|


"Rape meee...."
e|--------|---------|---------|----------|
B|--------|---------|---------|----------|
G|--------|-------5-|-------2-|----------|
D|------7-|-----5-5-|-----2-2-|-------5--|
A|----7-7-|-0-3-----|---2---2-|-----5-5--|
E|--5-----|---------|-0-------|-0-3------|


"Rape me again...."
e|--------|---------|-----------|---------------|
B|--------|---------|-----------|--With drums---|
G|--------|-------5-|-------2-2-|---------------|
D|------7-|-----5-5-|-------2-2-|--5-5-5-5-5-5--|
A|----7-7-|-0-3-----|---2---2-2-|--5-5-5-5-5-5--|
E|--5-----|---------|-0---------|--3-3-3-3-3-3--|



CHORUS (heavy distorted guitar with drums)

"I'm Not The Only One... Ahhh...."
e|-----------------------------------------------|
B|-----------------------------------------------|
G|-------------5-5-5-5-5-------------------------|
D|--7-7-7-7-7--5-5-5-5-5--2-2-2-2-2--5-5-5-5-5---|
A|--7-7-7-7-7--3-3-3-3-3--2-2-2-2-2--5-5-5-5-5---|
E|--5-5-5-5-5-------------0-0-0-0-0--3-3-3-3-3---|


"I'm Not The Only One... Ahhh...."
e|-----------------------------------------------|
B|-----------------------------------------------|
G|-------------5-5-5-5-5-------------------------|
D|--7-7-7-7-7--5-5-5-5-5--2-2-2-2-2--5-5-5-5-5---|
A|--7-7-7-7-7--3-3-3-3-3--2-2-2-2-2--5-5-5-5-5---|
E|--5-5-5-5-5-------------0-0-0-0-0--3-3-3-3-3---|


"I'm Not The Only One... Ahhh...."
e|-----------------------------------------------|
B|-----------------------------------------------|
G|-------------5-5-5-5-5-------------------------|
D|--7-7-7-7-7--5-5-5-5-5--2-2-2-2-2--5-5-5-5-5---|
A|--7-7-7-7-7--3-3-3-3-3--2-2-2-2-2--5-5-5-5-5---|
E|--5-5-5-5-5-------------0-0-0-0-0--3-3-3-3-3---|


"I'm Not The Only One...."
e|-----------------------------------------------|
B|-----------------------------------------------|
G|-------------5-5-5-5-5-------------------------|
D|--7-7-7-7-7--5-5-5-5-5--2-2-2-2-2--5-5-5-5-5---|
A|--7-7-7-7-7--3-3-3-3-3--2-2-2-2-2--5-5-5-5-5---|
E|--5-5-5-5-5-------------0-0-0-0-0--3-3-3-3-3---|



SECOND CHORUS 

"Hate meee...."
e|-----------------------------------------------|
B|-----------------------------------------------|
G|---------------5-5-x-x-x-x----0----------0-0---|
D|--7-7-x-x-x-x--5-5-x-x-x-x--2-2--x-x-x-x-5-5---|
A|--7-7-x-x-x-x--3-3-3-3-3-3--2-2--x-x-x-x-5-5---|
E|--5-5-5-5-5-5---------------0-0--3-3-3-3-3-3---|


"Do it and do it again...."
e|-----------------------------------------------|
B|-----------------------------------------------|
G|---------------5-5-x-x-x-x----0----------0-0---|
D|--7-7-x-x-x-x--5-5-x-x-x-x--2-2--x-x-x-x-5-5---|
A|--7-7-x-x-x-x--3-3-3-3-3-3--2-2--x-x-x-x-5-5---|
E|--5-5-5-5-5-5---------------0-0--3-3-3-3-3-3---|


"Waste me...."
e|-----------------------------------------------|
B|-----------------------------------------------|
G|---------------5-5-x-x-x-x----0----------0-0---|
D|--7-7-x-x-x-x--5-5-x-x-x-x--2-2--x-x-x-x-5-5---|
A|--7-7-x-x-x-x--3-3-3-3-3-3--2-2--x-x-x-x-5-5---|
E|--5-5-5-5-5-5---------------0-0--3-3-3-3-3-3---|


"Rape me my friend...."
e|-----------------------------------------------|
B|-----------------------------------------------|
G|---------------5-5-x-x-x-x---------------------|
D|--7-7-x-x-x-x--5-5-x-x-x-x--2-2--5-5-5-5-5-5---|
A|--7-7-x-x-x-x--3-3-3-3-3-3--2-2--5-5-5-5-5-5---|
E|--5-5-5-5-5-5---------------0-0--3-3-3-3-3-3---|



CHORUS (heavy distorted guitar with drums)

"I'm Not The Only One... Ahhh...."
e|-----------------------------------------------|
B|-----------------------------------------------|
G|-------------5-5-5-5-5-------------------------|
D|--7-7-7-7-7--5-5-5-5-5--2-2-2-2-2--5-5-5-5-5---|
A|--7-7-7-7-7--3-3-3-3-3--2-2-2-2-2--5-5-5-5-5---|
E|--5-5-5-5-5-------------0-0-0-0-0--3-3-3-3-3---|

[ Tab from: http://www.guitartabs.cc/tabs/n/nirvana/rape_me_tab_ver_12.html ]
"I'm Not The Only One... Ahhh...."
e|-----------------------------------------------|
B|-----------------------------------------------|
G|-------------5-5-5-5-5-------------------------|
D|--7-7-7-7-7--5-5-5-5-5--2-2-2-2-2--5-5-5-5-5---|
A|--7-7-7-7-7--3-3-3-3-3--2-2-2-2-2--5-5-5-5-5---|
E|--5-5-5-5-5-------------0-0-0-0-0--3-3-3-3-3---|


"I'm Not The Only One... Ahhh...."
e|-----------------------------------------------|
B|-----------------------------------------------|
G|-------------5-5-5-5-5-------------------------|
D|--7-7-7-7-7--5-5-5-5-5--2-2-2-2-2--5-5-5-5-5---|
A|--7-7-7-7-7--3-3-3-3-3--2-2-2-2-2--5-5-5-5-5---|
E|--5-5-5-5-5-------------0-0-0-0-0--3-3-3-3-3---|


"I'm Not The Only One...."
e|-----------------------------------------------|
B|-----------------------------------------------|
G|-------------5-5-5-5-5-------------------------|
D|--7-7-7-7-7--5-5-5-5-5--2-2-2-2-2--5-5-5-5-5---|
A|--7-7-7-7-7--3-3-3-3-3--2-2-2-2-2--5-5-5-5-5---|
E|--5-5-5-5-5-------------0-0-0-0-0--3-3-3-3-3---|



THIRD CHORUS (With Distortion and drums)

"My favorite inside source...."
e|----------------------------------|
B|----------------------------------|
G|--6-6-6-6-6-6--2-2-2-2------------|
D|--6-6-6-6-6-6--2-2-2-2------------|
A|--4-4-4-4-4-4--0-0-0-0--3-2-1-0---|
E|----------------------------------|


"I'll kiss your open sores...."
e|----------------------------------|
B|----------------------------------|
G|--6-6-6-6-6-6--2-2-2-2------------|
D|--6-6-6-6-6-6--2-2-2-2------------|
A|--4-4-4-4-4-4--0-0-0-0--3-2-1-0---|
E|----------------------------------|


"Appreciate your concern...."
e|----------------------------------|
B|----------------------------------|
G|--6-6-6-6-6-6--2-2-2-2------------|
D|--6-6-6-6-6-6--2-2-2-2------------|
A|--4-4-4-4-4-4--0-0-0-0--3-2-1-0---|
E|----------------------------------|


"You'll always stink and burn...."
e|----------------------------------|
B|----------------------------------|
G|--6-6-6-6-6-6--2-2-2-2------------|
D|--6-6-6-6-6-6--2-2-2-2------------|
A|--4-4-4-4-4-4--0-0-0-0--3-2-1-0---|
E|----------------------------------|


e|-----------------------------------|-0---~~~--|
B|-----------------------------------|-0--------|
G|-----------------------------------|-3--------|
D|-3-3-3-3-3-3-3-3--5-5-5-5-5-5-5-5--|-2--------|
A|-1-1-1-1-1-1-1-1--3-3-3-3-3-3-3-3--|----------|
E|-----------------------------------|----------|


FOURTH CHORUS 

"Rape meee...."
e|---------------|-------------|-------|---------------|
B|---------------|-------------|-------|---------------|
G|---------------|--5-5-x-x-x--|-------|---------------|
D|--7-7-x-x-x-x--|--5-5-x-x-x--|--2-2--|--x-x-x-x-5-5--|
A|--7-7-x-x-x-x--|--3-3-3-3-3--|--2-2--|--x-x-x-x-5-5--|
E|--5-5-5-5-5-5--|-------------|--0-0--|--3-3-3-3-3-3--|


"Rape me my friend...."
e|---------------|-------------|-------|---------------|
B|---------------|-------------|-------|---------------|
G|---------------|--5-5-x-x-x--|-------|---------------|
D|--7-7-x-x-x-x--|--5-5-x-x-x--|--2-2--|--x-x-x-x-5-5--|
A|--7-7-x-x-x-x--|--3-3-3-3-3--|--2-2--|--x-x-x-x-5-5--|
E|--5-5-5-5-5-5--|-------------|--0-0--|--3-3-3-3-3-3--|


"Rape meee...."
e|---------------|-------------|-------|---------------|
B|---------------|-------------|-------|---------------|
G|---------------|--5-5-x-x-x--|-------|---------------|
D|--7-7-x-x-x-x--|--5-5-x-x-x--|--2-2--|--x-x-x-x-5-5--|
A|--7-7-x-x-x-x--|--3-3-3-3-3--|--2-2--|--x-x-x-x-5-5--|
E|--5-5-5-5-5-5--|-------------|--0-0--|--3-3-3-3-3-3--|


"Rape me again...."
e|---------------|-------------|-------|---------------|
B|---------------|-------------|-------|--With drums---|
G|---------------|--5-5-x-x-x--|-------|---------------|
D|--7-7-x-x-x-x--|--5-5-x-x-x--|--2-2--|--5-5-5-5-5-5--|
A|--7-7-x-x-x-x--|--3-3-3-3-3--|--2-2--|--5-5-5-5-5-5--|
E|--5-5-5-5-5-5--|-------------|--0-0--|--3-3-3-3-3-3--|



CHORUS (heavy distorted guitar with drums)

"I'm Not The Only One... Ahhh...."
e|-----------------------------------------------|
B|-----------------------------------------------|
G|-------------5-5-5-5-5-------------------------|
D|--7-7-7-7-7--5-5-5-5-5--2-2-2-2-2--5-5-5-5-5---|
A|--7-7-7-7-7--3-3-3-3-3--2-2-2-2-2--5-5-5-5-5---|
E|--5-5-5-5-5-------------0-0-0-0-0--3-3-3-3-3---|


"I'm Not The Only One... Ahhh...."
e|-----------------------------------------------|
B|-----------------------------------------------|
G|-------------5-5-5-5-5-------------------------|
D|--7-7-7-7-7--5-5-5-5-5--2-2-2-2-2--5-5-5-5-5---|
A|--7-7-7-7-7--3-3-3-3-3--2-2-2-2-2--5-5-5-5-5---|
E|--5-5-5-5-5-------------0-0-0-0-0--3-3-3-3-3---|


"I'm Not The Only One... Ahhh...."
e|-----------------------------------------------|
B|-----------------------------------------------|
G|-------------5-5-5-5-5-------------------------|
D|--7-7-7-7-7--5-5-5-5-5--2-2-2-2-2--5-5-5-5-5---|
A|--7-7-7-7-7--3-3-3-3-3--2-2-2-2-2--5-5-5-5-5---|
E|--5-5-5-5-5-------------0-0-0-0-0--3-3-3-3-3---|


"I'm Not The Only One...."
e|-----------------------------------------------|
B|-----------------------------------------------|
G|-------------5-5-5-5-5-------------------------|
D|--7-7-7-7-7--5-5-5-5-5--2-2-2-2-2--5-5-5-5-5---|
A|--7-7-7-7-7--3-3-3-3-3--2-2-2-2-2--5-5-5-5-5---|
E|--5-5-5-5-5-------------0-0-0-0-0--3-3-3-3-3---|



FIFTH CHORUS (with distortion and drums)

"Rape me!!!...."  \
e|-----|           \ 
B|-----|            \
G|-----|             \_ _ 9 times    
D|--6--|             /
A|--6--|            /
E|--6--|           /
                  /


END

e|------|
B|------|
G|------|
D|--6/--|
A|--6/--|
E|--6/--|


 /  slide up
 \  slide down
 h  hammer-on
 p  pull-off
 ~  vibrato
 +  harmonic
 x  Mute note
=============================================================================
This tab is the 100% right, so don't forget to rate :P
If you want to you can send me an e-mail with comments or additions to cocofuhgawz@hotmail.com
Comments