Nirvana - Rape Me Chords & Tabs

 

Nirvana Chords & Tabs

Version: 1 Type: Tab 0 ratings
1 star 2 stars 3 stars 4 stars 5 stars
comments

Rape Me Tab

I hope you like this version, its pretty easy to follow, 
just listen to the song and you will get the rythm. My friend Thomas
plays drums while I play the guitar, and this is the best sounding
version i think, I hope you like it, enjoy!!
Just remember this isnt my song its Nrivana's only to be used for 
presonal use.

Rape Me
Nirvana

Intro
E|--X----X----X----X---
B|--X----X----X----X---
G|--X----X----X----X---
D|--X----X----X----X---
A|--X----X----X----X---
E|--X----X----X----X---

Main Riff
E|-------------------------------------------
B|-------------------------------------------
G|---2-2-X-X-X--5-5--------------------------
D|---2-2-X-X-X--5-5-----2-2-X-X-X--5-5--
A|---0-0-X-X-X--3-3-----2-2-X-X-X--5-5--
E|----------------------0-0-X-X-X--3-3----   

E|-------------------------------------------
B|-------------------------------------------
G|---2-2-X-X-X--5-5--------------------------
D|---2-2-X-X-X--5-5-----2-2-X-X-X--5-5--
A|---0-0-X-X-X--3-3-----2-2-X-X-X--5-5--
E|----------------------0-0-X-X-X--3-3----   


1st Verse
B|---------------------------------------
G|----2--------5--------------------------
D|----2-------55----------2-2------5--
A|--0----0-3--------------2-2-----55-------
E|----------------------0-0---0-3------0----

B|---------------------------------------
G|----2--------5--------------------------
D|----2-------55----------2-2------5--
A|--0----0-3--------------2-2-----55-------
E|----------------------0-0---0-3------0----

B|---------------------------------------
G|----2--------5--------------------------
D|----2-------55----------2-2------5--
A|--0----0-3--------------2-2-----55-------
E|----------------------0-0---0-3------0----

B|---------------------------------------
G|----2-2-X-X-X--5-5-----------------------------
D|----2-2-X-X-X--5-5----------2-2-X-X---------
A|----0-0-X-X-X--3-3----------2-2-X-X-3/12----
E|--------------------------0-0-0-X-X---------

Main Riff (chorus)
E|-------------------------------------------
B|-------------------------------------------
G|---2-2-X-X-X--5-5--------------------------
D|---2-2-X-X-X--5-5-----2-2-X-X-X--5-5--
A|---0-0-X-X-X--3-3-----2-2-X-X-X--5-5--
E|----------------------0-0-X-X-X--3-3----   

E|-------------------------------------------
B|-------------------------------------------
G|---2-2-X-X-X--5-5--------------------------
D|---2-2-X-X-X--5-5-----2-2-X-X-X--5-5--
A|---0-0-X-X-X--3-3-----2-2-X-X-X--5-5--
E|----------------------0-0-X-X-X--3-3----   

E|-------------------------------------------
B|-------------------------------------------
G|---2-2-X-X-X--5-5--------------------------
D|---2-2-X-X-X--5-5-----2-2-X-X-X--5-5--
A|---0-0-X-X-X--3-3-----2-2-X-X-X--5-5--
E|----------------------0-0-X-X-X--3-3----   

E|-------------------------------------------
B|-------------------------------------------
G|---2-2-X-X-X--5-5--------------------------
D|---2-2-X-X-X--5-5-----2-2-X-X-X--5-5--
A|---0-0-X-X-X--3-3-----2-2-X-X-X--5-5--
E|----------------------0-0-X-X-X--3-3----   

2nd Verse
E|--------------------------------------
B|---------------------------------------
G|----2--------5--------------------------
D|----2-------55----------2-2------5--
A|--0----0-3--------------2-2-----55-------
E|----------------------0-0---0-3------0----

E|-------------------------------------
B|---------------------------------------
G|----2--------5--------------------------
D|----2-------55----------2-2------5--
A|--0----0-3--------------2-2-----55-------
E|----------------------0-0---0-3------0----

E|---------------------------------------
B|---------------------------------------
G|----2--------5--------------------------
D|----2-------55----------2-2------5--
A|--0----0-3--------------2-2-----55-------
E|----------------------0-0---0-3------0----

E|------------------------------------------
B|---------------------------------------
G|----2-2-X-X-X--5-5-----------------------------
D|----2-2-X-X-X--5-5----------2-2-X-X---------
A|----0-0-X-X-X--3-3----------2-2-X-X-3/12----
E|--------------------------0-0-0-X-X---------
[ Tab from: http://www.guitartabs.cc/tabs/n/nirvana/rape_me_tab.html ]
Bridge
E|---------------------------------------
B|---------------------------------------
G|-----6-6-6-6-6-6-6-6--2-2-2-2----------
D|-----6-6-6-6-6-6-6-6--2-2-2-2-----------
A|-----4-4-4-4-4-4-4-4--0-0-0-0-3-2-1-0----
E|-----------------------------------------

E|---------------------------------------
B|---------------------------------------
G|-----6-6-6-6-6-6-6-6--2-2-2-2----------
D|-----6-6-6-6-6-6-6-6--2-2-2-2-----------
A|-----4-4-4-4-4-4-4-4--0-0-0-0-3-2-1-0----
E|-----------------------------------------

E|---------------------------------------
B|---------------------------------------
G|-----6-6-6-6-6-6-6-6--2-2-2-2----------
D|-----6-6-6-6-6-6-6-6--2-2-2-2-----------
A|-----4-4-4-4-4-4-4-4--0-0-0-0-3-2-1-0----
E|-----------------------------------------

E|---------------------------------------
B|---------------------------------------
G|-----6-6-6-6-6-6-6-6--2-2-2-2----------
D|-----6-6-6-6-6-6-6-6--2-2-2-2-----------
A|-----4-4-4-4-4-4-4-4--0-0-0-0-3-2-1-0----
E|-----------------------------------------

E|--------------------------------------0--
B|----------------------------------------
G|------------------------------------2----
D|--3-3-3-3-3-3-3-3--5-5-5-5-5-5-5-5--2--------------------
A|--3-3-3-3-3-3-3-3--5-5-5-5-5-5-5-5--0--------------------
E|--1-1-1-1-1-1-1-1--3-3-3-3-3-3-3-3----------------------

E|--------------------------------------
B|---------------------------------------
G|----2--------5--------------------------
D|----2-------55----------2-2------5--
A|--0----0-3--------------2-2-----55-------
E|----------------------0-0---0-3------0----

E|-------------------------------------
B|---------------------------------------
G|----2--------5--------------------------
D|----2-------55----------2-2------5--
A|--0----0-3--------------2-2-----55-------
E|----------------------0-0---0-3------0----

E|---------------------------------------
B|---------------------------------------
G|----2--------5--------------------------
D|----2-------55----------2-2------5--
A|--0----0-3--------------2-2-----55-------
E|----------------------0-0---0-3------0----

E|------------------------------------------
B|---------------------------------------
G|----2-2-X-X-X--5-5-----------------------------
D|----2-2-X-X-X--5-5----------2-2-X-X---------
A|----0-0-X-X-X--3-3----------2-2-X-X-3/12----
E|--------------------------0-0-0-X-X---------

Main Riff (chorus)
E|-------------------------------------------
B|-------------------------------------------
G|---2-2-X-X-X--5-5--------------------------
D|---2-2-X-X-X--5-5-----2-2-X-X-X--5-5--
A|---0-0-X-X-X--3-3-----2-2-X-X-X--5-5--
E|----------------------0-0-X-X-X--3-3----   

E|-------------------------------------------
B|-------------------------------------------
G|---2-2-X-X-X--5-5--------------------------
D|---2-2-X-X-X--5-5-----2-2-X-X-X--5-5--
A|---0-0-X-X-X--3-3-----2-2-X-X-X--5-5--
E|----------------------0-0-X-X-X--3-3----   

E|-------------------------------------------
B|-------------------------------------------
G|---2-2-X-X-X--5-5--------------------------
D|---2-2-X-X-X--5-5-----2-2-X-X-X--5-5--
A|---0-0-X-X-X--3-3-----2-2-X-X-X--5-5--
E|----------------------0-0-X-X-X--3-3----   

E|-------------------------------------------
B|-------------------------------------------
G|---2-2-X-X-X--5-5--------------------------
D|---2-2-X-X-X--5-5-----2-2-X-X-X--5-5--
A|---0-0-X-X-X--3-3-----2-2-X-X-X--5-5--
E|----------------------0-0-X-X-X--3-3----   

E|-------------------------------------------
B|-------------------------------------------
G|---2-2-X-X-X--5-5--------------------------
D|---2-2-X-X-X--5-5-----2-2-X-X-X--5-5--
A|---0-0-X-X-X--3-3-----2-2-X-X-X--5-5--
E|----------------------0-0-X-X-X--3-3----   

E|-------------------------------------------
B|-------------------------------------------
G|---2-2-X-X-X--5-5--------------------------
D|---2-2-X-X-X--5-5-----2-2-X-X-X--5-5--
A|---0-0-X-X-X--3-3-----2-2-X-X-X--5-5--
E|----------------------0-0-X-X-X--3-3----   

E|-------------------------------------------0~0~0~0
B|-------------------------------------------
G|---2-2-X-X-X--5-5------------------------2--
D|---2-2-X-X-X--5-5-----2-2-X-X-X--5-5-----2--
A|---0-0-X-X-X--3-3-----2-2-X-X-X--5-5-----0--
E|----------------------0-0-X-X-X--3-3--------   


Comments