Nirvana - Rape Me Chords & Tabs

 

Rape Me Chords & Tabs

Nirvana Chords & Tabs

Version: 6 Type: Bass Tab 0 ratings
1 star 2 stars 3 stars 4 stars 5 stars
comments

Rape Me Bass Tab

Tabbed By: Punk_Rocker27
E-mail: Instant Message me instead, AOL Screen Name is: NewBreed 4lyfe

Verse
  1., Rape   me.__________                   Rape   me.______  my  friend__
G---------------------------|---------------|---------------------------|
D---------------------------|---------------|---------------------------|
A---------------------------|---------------|---------------------------|
E---------------------------|---------------|---------------------------|
 
   Rape   me.__________         Rape   me.__________    a    -   gain_____
G---------------------------|----------------------------------------------|
D---------------------------|----------------------------------------------|
A---------------------------|----------------------------------------------|
E---------------------------|----------------------------------------------|

Chorus
          I'm not the on - ly one.__      I,_______ 
G-------||------------------------|----------------------|
D-------||------------------------|----------------------|
A--/17\-||------------3---3--3--3-|----------------------|
E-------||-5----5--5--------------|-0---0--0--3--3--3--0-|

  I'm not the on - ly one.__       I______
G-----------------------|------------------|
D-----------------------|----------5---5---|
A------------3---3/5--5-|-7---7--7---7---7-|
E-5----5--5-------------|------------------|

  I'm not the on - ly one.__      I,_______ 
G------------------------|----------------------|
D------------------------|----------------------|
A------------3---3--3--3-|----------------------|
E-5----5--5--------------|-0---0--0--3--3--3--0-|

 I'm not the on - ly one.__ I______ I'm not the only one
G-----------------------|------------------|
D-----------------------|----------5---5---|
A------------3---3/5--5-|-7---7--7---7---7-|
E-5----5--5-------------|------------------|
[ Tab from: http://www.guitartabs.cc/tabs/n/nirvana/rape_me_btab_ver_6.html ]
Verse 2.
Hate me.
Do it and do it again.
Waste me.
Taste me my friend.
(the verse has the same bass line as the chorus)

(Chorus repeat)

Bridge
     My fav-'rite in-side  source.__________    I'll kiss your o-pen sores.__
G--------------------------|------------------------|-----------------------|
D-----------------------2--|------------------------|---------------------2-|
A---4----4--4--4--2--4-----|-0----0--0--------------|-4----4--4--4--2--4----|
E--------------------------|------------3--2--1--0--|-----------------------|

_______________
G------------------------|
D------------------------|
A-0----0--0--------------|
E------------3--2--1--0--|

     App-pre-ciate your con-cern.___________    You'll al-ways stink and burn
G--------------------------|------------------------|-----------------------|
D-----------------------2--|------------------------|---------------------2-|
A---4----4--4--4--2--4-----|-0----0--0--------------|-4----4--4--4--2--4----|
E--------------------------|------------3--2--1--0--|-----------------------|

_______________
G-----------------------|------------------------|-------------------------|
D-----------------------|------------------------|-------------------------|
A-0----0--0-------------|------------------------|-------------------------|
E------------3--2--1--0-|-1--1--1--1--1--1--1--1-|-/3--3--3--3--3--3--3--5-|

(verse 1 repeat)(no bass)
(chorus repeat)

Outro
   Rape me.______           Rape me.______          Rape me._______________
              Rape me._____           Rape me.____
G------------------------|-------------------------|----------------------||
D------------------------|------------5------------|----------------------||
A-------------3--3--5--5-|-------------------------|----------------------||
E--5---5--5--------------|-0---0---0-----3-3--3--0-|---5------------------||

and thats it. There's rape me, its right, but if you have any questions AOL
instant message me at: NewBreed 4lyfe
Comments