Nirvana - Rape Me Chords & Tabs

 

Rape Me Chords & Tabs

Nirvana Chords & Tabs

Version: 4 Type: Bass Tab 0 ratings
1 star 2 stars 3 stars 4 stars 5 stars
comments

Rape Me Bass Tab

Nirvana -> Rape Me

"Rape me................
G:------------------------------------------------------
D:-----------------------------5-5----------------------
A:----333-------------33-5-77-7-7-7---------------------
E:55-5---00-0-333-55-5----------------------------------
[ Tab from: http://www.guitartabs.cc/tabs/n/nirvana/rape_me_btab_ver_4.html ]
"
G:----------------------------------------------------------------
D:------2------------2------------2------------2------------------
A:444-24-00----444-24-00----444-24-00----444-24-00--------------7-
E:---------3210---------3210---------3210---------3210-1111-3333--


"Rape me,rape me,rape me,rape me,rape me,rape me......."
G:------------------------------------------------------
D:------------------------------------------------------
A:--33-57-----------------------------------------------
E:55-----00-3333----------------------------------------

Figured out by Luiz Manzano (Brasil)
Comments