Nirvana - Polly Unplugged Chords & Tabs

 

Polly Unplugged Chords & Tabs

Nirvana Chords & Tabs

Version: 1 Type: Chords 0 ratings
1 star 2 stars 3 stars 4 stars 5 stars
comments

Polly Unplugged Chords

   
ok this is a great Nirvana song, and its pretty easy to play.

there are two main versions to the song: a powerchord version and
mixture of open and powerchords (which i think sounds better,
I at least enjoy playing this version more)

you can tune ur guitar down one step but no one ever does that.
the song still sounds great in standard tuning.

x- palmute or the note is muted naturally

POWERCHORD VERSION

verse
e ---------------------
b ---------------------
g --------7-7-5--5-5-5-
d 2-x-5-5-7-7-5--5-5-5-
a 2-x-5-5-5-5-3--3-3-3-
e 0-x-3-3--------------

chorus
e ----------------
b ----------------
g 7-7-5-5---------
d 7-7-5-5-5-5-8-8-
a 5-5-3-3-5-5-8-8-
e --------3-3-6-6-
[ Tab from: http://www.guitartabs.cc/tabs/n/nirvana/polly_unplugged_crd.html ]
OTHER VERSION (my perference)

  E5      G    d   C5
e ------------0-0----------
b ------------3-3----------
g --------0-0-2-2-5--5-5-5-
d --------0-0-----5--5-5-5-
a 2-------x-x-----3--3-3-3-
e 0-x-0-3-3-3--------------
          up down 
          stroke

chorus
  d  C5   G    A#5
e -------------------
b 3------------------
g 2-5-5-5-0-x-3--3-3-
d 0-5-5-5-0-x-3--3-3-
a 0-3-3-3-x-x-1--1-1-
e --------3----------

Interlude ("polly said")- E5

In this song its inportant to transition to each chord smoothly,
just add open stroke to do this. Also, listen to the song for the
rhythm. All of the song is there and it songs great on an acoustic 
with light strumming.

have a good one.


Comments