Nirvana - Polly Chords & Tabs

 

Polly Chords & Tabs

Nirvana Chords & Tabs

Version: 8 Type: Tab 0 ratings
1 star 2 stars 3 stars 4 stars 5 stars
comments

Polly Tab

INTRO/VERSE:

-------------------------------------------
-------------------------------------------
-0-----------4-----0--7--7--x--5--5--5--0--
-2--x--0--5--5-----0--7--7--x--5--5--5--0--
-2--x--0--5--5--x-----5--5--x--3--3--3-----
-0--x--0--3--3--x--------------------------

-------------------------------------------
----------------------7--7-----5--5--------
-0-----------------0--7--7--x--5--5--5--0--   
-2--2--0--5--5-----0--7--7--x--5--5--5--0--
-2--2--0--5--5--x-----5--5--x--3--3--3-----
-0--0-----3--3--x--------------------------

CHORUS:

---------------------------------------
-7--x--5--5--5-------------------------
-7--x--5--5--5--0--4--4-----3--3--3/7--
-7--x--5--5--5--0--5--5--x--3--3--3/7--
-5--x--3--3--3--0--5--5--x--1--1--1/5--
-------------------3--3--x-------------
[ Tab from: http://www.guitartabs.cc/tabs/n/nirvana/polly_tab_ver_8.html ]
---------------------------------------------------------------
----------5-------------------------------7--7-----5-----------
-7--7--x--5--5--5--0--------x--3--3--3/7--7--7--x--5--5--5--0--
-7--7--x--5--5--5--0--5--5--x--3--3--3/7--7--7--x--5--5--5--0--
-5--5--x--3--3--3-----5--5--x--1--1--1/5--5--5--x--3--3--3-----
----------------------3--3-------------------------------------


---------------------------------------------------------------
---------------------7--7-----5--------------------------------
-4--4--x--3--3--3/7--7--7--x--5--5--5--0--4--4--x--3--3--3/7---
-5--5--x--3--3--3/7--7--7--x--5--5--5--0--5--5--x--3--3--3/7---
-5--5--x--1--1--1/5--5--5--x--3--3--3-----5--5--x--1--1--1/7---
-3--3----------------------------3--3--------------------------


any questions or comments, or ya just wanna tell me my tabs just
plain suck, lemme know at free_fallin69@hotmail.com
Comments