Nirvana - Polly Chords & Tabs

 

Polly Chords & Tabs

Nirvana Chords & Tabs

Version: 7 Type: Tab 0 ratings
1 star 2 stars 3 stars 4 stars 5 stars
comments

Polly Tab

one of my all time fav. songs. just listen to the song to get the timing.

intro:

e|-----------------------------------------
B|-----------------------------------------
G|---------------7-7-5--5------------------
D|-2-x--5-5-x-x--7-7-5--5------------------
A|-2-x--5-5-x-x--5-5-3--3------------------
E|-0-x--3-3-x-x----------------------------

chorus:
[ Tab from: http://www.guitartabs.cc/tabs/n/nirvana/polly_tab_ver_7.html ]
e|-----------------------------------------
B|-----------------------------------------
G|-7-x--5-5-5-5----------------------------
D|-7-x--5-5-5-5--5-x--8-8-8-8--------------
A|-5-x--3-3-3-3--5-x--8-8-8-8--------------
E|---------------3-x--6-6-6-6--------------

interlude:

e|-----------------------------------------
B|-----------------------------------------
G|-----------------------------------------
D|----------0-0-0--------------------------
A|----------------3-3-3--------------------
E|-0--3-3-3--------------------------------

playing order:

intro:     twice
verse:     4x
chorus:    9x
verse:     6x
chorus:    9x
interlude: twice
verse:     4x
chorus:    9x


this should be 100% correct, if not close to it. email at l1lwang@yahoo.com for corrections if needed.
Comments