Nirvana - Polly Chords & Tabs

 

Polly Chords & Tabs

Nirvana Chords & Tabs

Version: 6 Type: Tab 0 ratings
1 star 2 stars 3 stars 4 stars 5 stars
comments

Polly Tab

Nirvana: Polly.
Tabbed by Hefty Baggs,  dr_lipshitz@hotmail.com.
  
ARTIST: Nirvana
SONG: Polly
ALBUM: Nevermind
TAB BY: Hefty Baggs
-------------------------------------------------

Verse:

|--------------------------------|
|--------------------------------|
|---------------7-7-x--5-5-5-x-5-|
|-2-x-x--5-5-x--7-7-x--5-5-5-x-5-|
|-2-x-x--5-5-x--5-5-x--3-3-3-x-3-|
|-0-x-x--3-3-x-------------------|


Chorus:
[ Tab from: http://www.guitartabs.cc/tabs/n/nirvana/polly_tab_ver_6.html ]
|----------------------------------------|
|----------------------------------------|
|-7-7-x--5-5-5-x-5-----------------------|
|-7-7-x--5-5-5-x-5--5-5-5-5-x--7-7-7-x-7-|
|-5-5-x--3-3-3-x-3--5-5-5-5-x--7-7-7-x-7-|
|-------------------3-3-3-3-x--5-5-5-x-5-|


Bass Riff on Guitar: (repeat)

|--------------------------------|
|--------------------------------|
|--------------------------------|
|--------------------------------|
|---------------3-3-3-x--6-6-6-6-|
|-0-x--3-3-3-x-------------------| 
:: Ultimate Guitar Archive :: 
http://www.ultimate-guitar.com 

Comments