Nirvana - Polly Chords & Tabs

 

Polly Chords & Tabs

Nirvana Chords & Tabs

Version: 2 Type: Tab 3 ratings
1 star 2 stars 3 stars 4 stars 5 stars
comments

Polly Tab

Band: Nirvana
Song: Polly
tabbed by paul-online@gmx.net


Verse:

1|--------------------------------------------------------------------|-      
2|--------------------------------------------------------------------|-       
3|--------------7-7---5--5-5-4---------------7-7---5--5-5-4--|-  
4|--2---5-5---7-7---5--5-5-4--2---5-5---7-7---5--5-5-4--|-
5|--2---5-5---5-5---3--3-3-2--2---5-5---5-5---3--3-3-2--|-
6|--0---3-3-----------------------0---3-3------------------------|-

Chorus:
[ Tab from: http://www.guitartabs.cc/tabs/n/nirvana/polly_tab_ver_2.html ]
1|---------------------------------------------------------------------------------|-
2|---------------------------------------------------------------------------------|-
3|--7-x-5--5-5------------3--3-3/7-7-x-5--5-5------------3--3-3-2-----|-
4|--7-x-5--5-5---5-5-x--3--3-3/7-7-x-5--5-5--5-5-x--3--3-3-2--2--|-
5|--5-x-3--3-3---5-5-x--1--1-1/5-5-x-3--3-3--5-5-x--1--1-1-0--2--|-
6|-------------------3-3-x-----------------------------3-3-x----------------0--|-

Verse:
Kurt Used The D Chord To Make It Easier To Move From Chord To Chord. This Was Used After The Release Of Nevermind

1|----------------------------------------|-                  
2|--------------3-3---------------------|-                
3|--------------2-2----5--5-5-4------|-                   
4|--2---5-5---0-0----5--5-5-4--2--|-                        
5|--2---5-5-----------3--3-3-2--2--|-
6|--0---3-3------------------------0--|-

Comments