Nirvana - Polly Chords & Tabs

 

Polly Chords & Tabs

Nirvana Chords & Tabs

Version: 11 Type: Tab 0 ratings
1 star 2 stars 3 stars 4 stars 5 stars
comments

Polly Tab

   
Song:Polly

Artist:Nirvana

Album:Nevermind

Tabbed by:brad-meister-UG screen name 
             (Bradley Morettin)

Email:bradleymorettin@hotmial.com

NOTES: The slides are there in the song but they are only used when switchingback
to the first chord. They are not that noticable in the song but ifyou listen to the
song from the CD there is a slight slide but again it is not that noticable.
        
I do not play much bass, so the interlude may be off alot.

Please do not send me e-mails saying that i missed a word in 
the lyrics because I don't care about the lyrics, just the tabs.

Please only send me e-mail stating information that i can use in the 
future when writing tabs like things that would make it better.

I also already know that the words are not exactly matching the notes
because i could not fit it perfectly.   

Tuning (Guitar):Standard (EADGBE)
Tuning (Bass)  :Standard (EADG)

TAB SYMBOLS:
| /  slide up
| \  slide down
| h  hammer-on
| p  pull-off
| ~  vibrato  
| +  harmonic
| x  Mute note


Verse 1
e|-------------------------------------------------------------------------|
B|-------------------------------------------------------------------------|
G|-----------------8-8-x--6-6-6/5----------------8-8-x--6-6-6/5------------|
D|-3-x-x--6-6-x-x--8-8-x--6-6-6/5--3-x-x--6-6-x--8-8-x--6-6-6/5------------|
A|-3-x-x--6-6-x-x--6-6-x--4-4-4/3--3-x-x--6-6-x--6-6-x--4-4-4/3------------|
E|-1-x-x--4-4-x-x------------------1-x-x--4-4-x----------------------------|

e|-------------------------------------------------------------------------|
B|-------------------------------------------------------------------------|
G|-----------------8-8-x--6-6-6/5----------------8-8-x--6-6-6/5------------|
D|-3-x-x--6-6-x-x--8-8-x--6-6-6/5--3-x-x--6-6-x--8-8-x--6-6-6/5------------|
A|-3-x-x--6-6-x-x--6-6-x--4-4-4/3--3-x-x--6-6-x--6-6-x--4-4-4/3------------|
E|-1-x-x--4-4-x-x------------------1-x-x--4-4-x----------------------------|
   Polly wants a cracker.          I Think I should  get off her first.
e|-------------------------------------------------------------------------|
B|-------------------------------------------------------------------------|
G|-----------------8-8-x--6-6-6/5----------------8-8-x--6-6-6/5------------|
D|-3-x-x--6-6-x-x--8-8-x--6-6-6/5--3-x-x--6-6-x--8-8-x--6-6-6/5------------|
A|-3-x-x--6-6-x-x--6-6-x--4-4-4/3--3-x-x--6-6-x--6-6-x--4-4-4/3------------|
E|-1-x-x--4-4-x-x------------------1-x-x--4-4-x----------------------------|
  I think she wants some water.    To put out the blow torch. 


Chorus
e|-------------------------------------------------------------------------|
B|-------------------------------------------------------------------------|
G|-7-7-7-x--5-5-x------------------7-7-7-x--5-5-x--------------------------|
D|-7-7-7-x--5-5-x--3-3-3-x--5-5-x--7-7-7-x--5-5-x--3-3-3-x--5-5-x----------|
A|-5-5-5-x--3-3-x--3-3-3-x--5-5-x--5-5-5-x--3-3-x--3-3-3-x--5-5-x----------|
E|-----------------1-1-1-x--3-3-x------------------1-1-1-x--3-3-x----------|
    Isn't me.      Have a seed.     Let me clip.   Your dirty wings. 
e|-------------------------------------------------------------------------|
B|-------------------------------------------------------------------------|
G|-7-7-7-x--5-5-x------------------7-7-7-x--5-5-x--------------------------|
D|-7-7-7-x--5-5-x--3-3-3-x--5-5-x--7-7-7-x--5-5-x--3-3-3-x--5-5-x----------|
A|-5-5-5-x--3-3-x--3-3-3-x--5-5-x--5-5-5-x--3-3-x--3-3-3-x--5-5-x----------|
E|-----------------1-1-1-x--3-3-x------------------1-1-1-x--3-3-x----------|
   Let me take a ride. Don't Cut yourself. Want some help? Please myself
e|-------------------------------------------------------------------------|
B|-------------------------------------------------------------------------|
G|-7-7-7-x--5-5-x------------------7-7-7-x--5-5-x--------------------------|
D|-7-7-7-x--5-5-x--3-3-3-x--5-5-x--7-7-7-x--5-5-x--3-3-3-x--5-5-x----------|
A|-5-5-5-x--3-3-x--3-3-3-x--5-5-x--5-5-5-x--3-3-x--3-3-3-x--5-5-x----------|
E|-----------------1-1-1-x--3-3-x------------------1-1-1-x--3-3-x----------|
   I Got some rope. You have been told. I promise you. I have been true.
e|-------------------------------------------------------------------------|
B|-------------------------------------------------------------------------|
G|-7-7-7-x--5-5-x------------------7-7-7-x--5-5-x--------------------------|
D|-7-7-7-x--5-5-x--3-3-3-x--5-5-x--7-7-7-x--5-5-x--3-3-3-x--5-5-x----------|
A|-5-5-5-x--3-3-x--3-3-3-x--5-5-x--5-5-5-x--3-3-x--3-3-3-x--5-5-x----------|
E|-----------------1-1-1-x--3-3-x------------------1-1-1-x--3-3-x----------|
   Let me take a ride. Don't cut yourself. Want some help? Please myself.


Verse 2
e|-------------------------------------------------------------------------|
B|-------------------------------------------------------------------------|
G|-----------------8-8-x--6-6-6/5----------------8-8-x--6-6-6/5------------|
D|-3-x-x--6-6-x-x--8-8-x--6-6-6/5--3-x-x--6-6-x--8-8-x--6-6-6/5------------|
A|-3-x-x--6-6-x-x--6-6-x--4-4-4/3--3-x-x--6-6-x--6-6-x--4-4-4/3------------|
E|-1-x-x--4-4-x-x------------------1-x-x--4-4-x----------------------------|
[ Tab from: http://www.guitartabs.cc/tabs/n/nirvana/polly_tab_ver_11.html ]
e|-------------------------------------------------------------------------|
B|-------------------------------------------------------------------------|
G|-----------------8-8-x--6-6-6/5----------------8-8-x--6-6-6/5------------|
D|-3-x-x--6-6-x-x--8-8-x--6-6-6/5--3-x-x--6-6-x--8-8-x--6-6-6/5------------|
A|-3-x-x--6-6-x-x--6-6-x--4-4-4/3--3-x-x--6-6-x--6-6-x--4-4-4/3------------|
E|-1-x-x--4-4-x-x------------------1-x-x--4-4-x------------------------------|
   Polly wants a cracker.           Maybe she would like some food.         
e|-------------------------------------------------------------------------|
B|-------------------------------------------------------------------------|
G|-----------------8-8-x--6-6-6/5----------------8-8-x--6-6-6/5------------|
D|-3-x-x--6-6-x-x--8-8-x--6-6-6/5--3-x-x--6-6-x--8-8-x--6-6-6/5------------|
A|-3-x-x--6-6-x-x--6-6-x--4-4-4/3--3-x-x--6-6-x--6-6-x--4-4-4/3------------|
E|-1-x-x--4-4-x-x------------------1-x-x--4-4-x----------------------------|
  She asked me to untie her.       A chase would be nice for a few.


Chorus
e|-------------------------------------------------------------------------|
B|-------------------------------------------------------------------------|
G|-7-7-7-x--5-5-x------------------7-7-7-x--5-5-x--------------------------|
D|-7-7-7-x--5-5-x--3-3-3-x--5-5-x--7-7-7-x--5-5-x--3-3-3-x--5-5-x----------|
A|-5-5-5-x--3-3-x--3-3-3-x--5-5-x--5-5-5-x--3-3-x--3-3-3-x--5-5-x----------|
E|-----------------1-1-1-x--3-3-x------------------1-1-1-x--3-3-x----------|
    Isn't me.      Have a seed.     Let me clip.   Your dirty wings. 
e|-------------------------------------------------------------------------|
B|-------------------------------------------------------------------------|
G|-7-7-7-x--5-5-x------------------7-7-7-x--5-5-x--------------------------|
D|-7-7-7-x--5-5-x--3-3-3-x--5-5-x--7-7-7-x--5-5-x--3-3-3-x--5-5-x----------|
A|-5-5-5-x--3-3-x--3-3-3-x--5-5-x--5-5-5-x--3-3-x--3-3-3-x--5-5-x----------|
E|-----------------1-1-1-x--3-3-x------------------1-1-1-x--3-3-x----------|
   Let me take a ride. Don't Cut yourself. Want some help? Please myself
e|-------------------------------------------------------------------------|
B|-------------------------------------------------------------------------|
G|-7-7-7-x--5-5-x------------------7-7-7-x--5-5-x--------------------------|
D|-7-7-7-x--5-5-x--3-3-3-x--5-5-x--7-7-7-x--5-5-x--3-3-3-x--5-5-x----------|
A|-5-5-5-x--3-3-x--3-3-3-x--5-5-x--5-5-5-x--3-3-x--3-3-3-x--5-5-x----------|
E|-----------------1-1-1-x--3-3-x------------------1-1-1-x--3-3-x----------|
   I Got some rope. You have been told. I promise you. I have been true.
e|-------------------------------------------------------------------------|
B|-------------------------------------------------------------------------|
G|-7-7-7-x--5-5-x------------------7-7-7-x--5-5-x--------------------------|
D|-7-7-7-x--5-5-x--3-3-3-x--5-5-x--7-7-7-x--5-5-x--3-3-3-x--5-5-x----------|
A|-5-5-5-x--3-3-x--3-3-3-x--5-5-x--5-5-5-x--3-3-x--3-3-3-x--5-5-x----------|
E|-----------------1-1-1-x--3-3-x------------------1-1-1-x--3-3-x----------|
   Let me take a ride. Don't cut yourself. Want some help? Please myself.


Interlude (Bass)
G|-------------------------------------------------------------------------|
D|-------------------------------------------------------------------------|
A|---------------6-6-6--4-4-3---------------6-6-6--4-4-3-------------------|
E|-1-1-1--4-4-4---------------1-1-1--4-4-4---------------------------------|
                                 Polly Said...


Verse 3
e|-------------------------------------------------------------------------|
B|-------------------------------------------------------------------------|
G|-----------------8-8-x--6-6-6/5----------------8-8-x--6-6-6/5------------|
D|-3-x-x--6-6-x-x--8-8-x--6-6-6/5--3-x-x--6-6-x--8-8-x--6-6-6/5------------|
A|-3-x-x--6-6-x-x--6-6-x--4-4-4/3--3-x-x--6-6-x--6-6-x--4-4-4/3------------|
E|-1-x-x--4-4-x-x------------------1-x-x--4-4-x----------------------------|
   Polly says her back hurts.      She's just as bored as me.
e|-------------------------------------------------------------------------|
B|-------------------------------------------------------------------------|
G|-----------------8-8-x--6-6-6/5----------------8-8-x--6-6-6/5------------|
D|-3-x-x--6-6-x-x--8-8-x--6-6-6/5--3-x-x--6-6-x--8-8-x--6-6-6/5------------|
A|-3-x-x--6-6-x-x--6-6-x--4-4-4/3--3-x-x--6-6-x--6-6-x--4-4-4/3------------|
E|-1-x-x--4-4-x-x------------------1-x-x--4-4-x----------------------------|
   She caught me off my guard.      It amazes me, the will of instinct.


Chorus
e|-------------------------------------------------------------------------|
B|-------------------------------------------------------------------------|
G|-7-7-7-x--5-5-x------------------7-7-7-x--5-5-x--------------------------|
D|-7-7-7-x--5-5-x--3-3-3-x--5-5-x--7-7-7-x--5-5-x--3-3-3-x--5-5-x----------|
A|-5-5-5-x--3-3-x--3-3-3-x--5-5-x--5-5-5-x--3-3-x--3-3-3-x--5-5-x----------|
E|-----------------1-1-1-x--3-3-x------------------1-1-1-x--3-3-x----------|
    Isn't me.      Have a seed.     Let me clip.   Your dirty wings. 
e|-------------------------------------------------------------------------|
B|-------------------------------------------------------------------------|
G|-7-7-7-x--5-5-x------------------7-7-7-x--5-5-x--------------------------|
D|-7-7-7-x--5-5-x--3-3-3-x--5-5-x--7-7-7-x--5-5-x--3-3-3-x--5-5-x----------|
A|-5-5-5-x--3-3-x--3-3-3-x--5-5-x--5-5-5-x--3-3-x--3-3-3-x--5-5-x----------|
E|-----------------1-1-1-x--3-3-x------------------1-1-1-x--3-3-x----------|
   Let me take a ride. Don't Cut yourself. Want some help? Please myself
e|-------------------------------------------------------------------------|
B|-------------------------------------------------------------------------|
G|-7-7-7-x--5-5-x------------------7-7-7-x--5-5-x--------------------------|
D|-7-7-7-x--5-5-x--3-3-3-x--5-5-x--7-7-7-x--5-5-x--3-3-3-x--5-5-x----------|
A|-5-5-5-x--3-3-x--3-3-3-x--5-5-x--5-5-5-x--3-3-x--3-3-3-x--5-5-x----------|
E|-----------------1-1-1-x--3-3-x------------------1-1-1-x--3-3-x----------|
   I Got some rope. You have been told. I promise you. I have been true.
e|-------------------------------------------------------------------------|
B|-------------------------------------------------------------------------|
G|-7-7-7-x--5-5-x------------------7-7-7-x--5-5-x--------------------------|
D|-7-7-7-x--5-5-x--3-3-3-x--5-5-x--7-7-7-x--5-5-x--3-3-3-x--5-5~-----------|
A|-5-5-5-x--3-3-x--3-3-3-x--5-5-x--5-5-5-x--3-3-x--3-3-3-x--5-5~-----------|
E|-----------------1-1-1-x--3-3-x------------------1-1-1-x--3-3~-----------|
   Let me take a ride. Don't cut yourself. Want some help? Please myself.

Thank You for using my Tabs:)
Comments