Nirvana - Polly Chords & Tabs

 

Polly Chords & Tabs

Nirvana Chords & Tabs

Version: 10 Type: Tab 0 ratings
1 star 2 stars 3 stars 4 stars 5 stars
comments

Polly Tab

-------------------------------------------------------------------------------
			     POLLY - NIRVANA
-------------------------------------------------------------------------------

Tabbed by:Daniel Scott
Email: Onebmf044@yahoo.com

Tuning:Standard
[ Tab from: http://www.guitartabs.cc/tabs/n/nirvana/polly_tab_ver_10.html ]
Intro and Verse
e|---------------------------------------------------------------------------|
B|---------------------------------------------------------------------------|
G|------------------------9---9--9---7---7---7-----0-------------------------|
D|--4---4-----7---7-------9---9--9---7---7---7-----0-------------------------|
A|--4---4-----7---7-------7---7--7---5---5---5-----0-------------------------|
E|--2---2-----5---5-------0---0--0-------------------------------------------|

Chorus
e|---------------------------------------------------------------------------|
B|---------------------------------------------------------------------------|
G|--9---9-----7---7----------------------------------------------------------|
D|--9---9-----7---7-----7---7-----10--10--10---------------------------------|
A|--7---7-----5---5-----7---7-----10--10--10---------------------------------|
E|--0---0---------------5---5-----8---8---8----------------------------------|

Great Song, I think this sounds really good, let me know what you think
===============================================================================
Comments