Nirvana - Polly Chords & Tabs

 

Polly Chords & Tabs

Nirvana Chords & Tabs

Version: 1 Type: Chords 2 ratings
1 star 2 stars 3 stars 4 stars 5 stars
comments

Polly Chords

   
ARTIST: NIRVANA
SONG: POLLY
TABBED BY: JOHN LEADMAN



this is my first tab so don't get mad (it is pretty accurate) 
it is one of many easy songs nirvana plays so enjoy

x = TIMES (ex. 2x)
X=DON'T PLAY STRING


USE UP AND DOWN STROKES

THE PLAYING ORDER IS:
MAIN LINE
CHORUS
MAIN LINE
CHORUS
INTERLUDE
MAIN LINE
Em CHORD ENDING

KEEP PLAYING THIS UNTIL CHORUS COMES IN LISTEN TO THE CD AND YOU WILL 
KNOW WHEN IT COMES IN
[ Tab from: http://www.guitartabs.cc/tabs/n/nirvana/polly_crd.html ]
                          MAIN LINE
       2x          2x         2x         4x
E/-----X-----------X----------X----------X------------------------]
B/-----X-----------X----------X----------X------------------------]
G/-----0-----------0----------7----------5------------------------]
D/-----2-----------5----------7----------5------------------------]
A/-----2-----------5----------5----------3------------------------]
E/-----0-----------3----------0----------0------------------------]
                        
                 
                         CHORUS
        3x          4x        3x         4x
E/------X-----------X---------X----------X-----------------------]
B/------X-----------X---------X----------X-----------------------]
G/------7-----------5---------0----------0-----------------------]
D/------7-----------5---------5----------8-----------------------]
A/------5-----------3---------5----------6-----------------------]
E/------0-----------0---------3----------6-----------------------]

                            
                                 INTERLUDE

D/-----------------------------0--0--0---------------------]
A/--------------------------------------3--3--3--3---------]
E/------0--0--0-----3--3--3--3-----------------------------]



THE SONG ENDS WITH Em      
        Em (1x)
E/-----X------------]
B/-----X------------]
G/-----0------------]
D/-----2------------]
A/-----2------------]
E/-----0------------]

THAT IS IT I HAVE DONE THIS TAB TWICE BUT IT WAS NOT SUBMITTED 
I AM WORKING ON SOME OTHER NIRVANA TABS AND A VARIETY OF OTHERS FROM DIFFERENT ARTISTS SO LOOK FOR THEM IF YOU HAVE ANY QUESTIONS ON THIS 
TAB MY E-MAIL ADDRESS IS JOHNLEADMAN@CS.COM AND I WILL TRY AND ANSWER 
THEM
Comments