Nirvana - Polly Chords & Tabs

 

Polly Chords & Tabs

Nirvana Chords & Tabs

Version: 1 Type: Bass Tab

Polly Bass Tab

polly by nirvana 

Im not a bass player but a friend taught me this 
[ Tab from: http://www.guitartabs.cc/tabs/n/nirvana/polly_btab.html ]
G-------------------------------------------------
D-----------------------------------------------
A-----------------55----333------------------
E---00--0---33--0-----------------------------

G---------------------------------
D---------------------------------
A--55---33------------------------
E-----------33---666--------------